Song name
# A B C D E F G H I J K L M N O P Q R S T U V W X Y Z

6gig - 5 tab

#----------------------------------PLEASE NOTE--------------------------------#
#This file is the author's own work and represents their interpretation of the#
#song. You may only use this file for private study, scholarship, or research.#
#-----------------------------------------------------------------------------#
#-- File created with Instab - http://www.pconline.com/~smcarey/instab.html --#
#-----------------------------------------------------------------------------#

Author/Artist: 6gig
Title: 5
Transcribed by: Travis Naylor
Email: naylor@sniper.com

-14-12-14-12-14-12-14-12---------------------------14-------------------------|
-------------------------14-13-12---------------------------------------------|
----------------------------------14-13-12------------------------------------|
-------------------------------------------14-12------------------------------|
------------------------------------------------------------------------------|
------------------------------------------------------------------------------|
 Intro (Possibly tremolo bar)                      PH

------------------------------------------------------------------------------|
------------------------------------------------------------------------------|
------------------------------------------------------------------------------|
-9-7---9-7---9-7---9-7--------------------------------------------------------|
-9-7---9-7---9-7---9-7--------------------------------------------------------|
-9-7---9-7---9-7---9-7--------------------------------------------------------|
 Distortion
Tap to rate this tab
# A B C D E F G H I J K L M N O P Q R S T U V W X Y Z