Guitaretab - guitar tabs
Song name
# A B C D E F G H I J K L M N O P Q R S T U V W X Y Z

7-10 Split - Grind Core Kid tab

Intro
E-------------------------------------------------------------------|
B-------------------------------------------------------------------|
G-------------------------------------------------------------------|
D9-9-9-9-9-9-9----------------------------------------------------|
A-7-7-7-7-7-7-7---9-9-9-9-9-9-9---7-7-7-7-7-7-7---9-9-9-9-9-9-9-|
E------------------7-7-7-7-7-7-7---7-7-7-7-7-7-7---7-7-7-7-7-7-7-|
Play a couple of times

E-------------------------------------------------------|
B-------------------------------------------------------|
G-------------------------------------------------------|
D-9-9---9-9-9-------------------------------------------|
A-7-7---7-7-7---9-9---9-9-9---7-7---7-7-7---9-9---9-9-9-|
E---------------7-7---7-7-7---5-5---5-5-5---7-7---7-7-7-|
Play a couple of times then go back to intro
[ Tab from: http://www.guitaretab.com/numeric/7-10-split/113621.html ]
Then
E----------------------------------------------------|
B----------------------------------------------------|
G----------------------------------------------------|
D----------------------------------------------------|
A----------------------------------------------------|
E-0-0-0-01---0-0-0-0-3-1---0-0-0-0-1---0-0-0-0-3-1--|
  Palm mute the 0s

E----------------------------------------------------|
B----------------------------------------------------|
G----------------------------------------------------|
D----------------------------------------------------|
A---------1-----------3-1-----------1-----------3-1--|
E-0-0-0-0-1---0-0-0-0-3-1---0-0-0-0-1---0-0-0-0-3-1--|

Back to the beginning play the first 2 parts and play a couple of times

Ending
E---------------------------------------------------------|
B---------------------------------------------------------|
G---------------------------------------------------------|
D--------------------2-2-2-2------------------------------|
A-2-2-2-2---3-3-3-3-----------3-3-3-3---2---2---3------2--|
E--------------------------------------------------1---0--|

http://www.7-10split.org/