Song name
# A B C D E F G H I J K L M N O P Q R S T U V W X Y Z

7 Angels 7 Plagues - The Afternoon tab

Help us improve GuitareTab! Take a short survey!
Artist: 7 Angels 7 Plagues
Song: The Afternoon

standard tuning


e|----------------------------------------------------------|
B|-3-----5--7-----8---------12--8---------------12--8-------|
G|----0--------0-----9-------------0------9------------0----|
D|----------------------10------------10-----10-----------10|
A|-2-----3--5-----7--8------8---0---------8-----8---0-------|
E|----------------------------------------------------------|


e|----------------------------------------------------------|
B|-3-----5--7-----8---------12--8---------------12--8-------|
G|----0--------0-----9-------------0------9------------0----|
D|----------------------10------------10-----10-----------10|
A|-2-----3--5-----7--8------8---0---------8-----8---0-------|
E|----------------------------------------------------------|


e|----------------------------------------------------------|
B|-3-----5--7-----8---------12--8---------------12--8-------|
G|----0--------0-----9-------------0------9-----------------|
D|----------------------10------------10-----10-----------9-|
A|-2-----3--5-----7--8------8---0---------8-----8--(0)------|
E|----------------------------------------------------------|


e|--------------------------------------------------|
B|--------------------------------------------------|   *Let all of these 
G|--9-------------------9---------------------------|      notes ring 
D|-----------10-------------------9-----------------|
A|--------------------------------0-----------------|    Play 3 times
E|--------------------------------------------------|


e|--------------------------------------------------|
B|--------------------------------------------------|   
G|--9-------------------9---------------------------|      
D|-----------10-------------------------------------|
A|--------------------------------------------------|    
E|--------------------------------------------------|


e|--------------------------------------------------|
B|--------12--8---------------12--8-----------------|
G|-9-------------0------9---------------------------|   Play 3 times
D|----10------------10-----10-----------------------|
A|-8------8---0---------8-----8--(0)----------------|
E|--------------------------------------------------|


e|--------------------------------------------------|
B|--------12--8---------------12--8-----------------|
G|-9-------------0------9------------0--------------|   Play 3 times
D|----10------------10-----10-----------10----------|
A|-8------8---0---------8-----8--(0)----------------|
E|--------------------------------------------------|


e|--------------------------------------------------|
B|-3-----5--7--------3-----5--1---------------------|
G|----0--------0--------0--------0------------------|
D|----------------0-----------------0---------------|
A|-2-----3--5--------2-----3--0---------------------|
E|--------------------------------------------------|


e|--------------------------------------------------|
B|-3-----5--7--------3-----5--1-----1p0-------------|
G|----0--------0--------0--------0------------------|
D|----------------0-----------------0---------------|
A|-2-----3--5--------2-----3--0---------------------|
E|--------------------------------------------------|


e|--------------------------------------------------|
B|-3-----5--7--------3-----5--1---------------------|
G|----0--------0--------0--------0------------------|
D|----------------0-----------------0---------------|
A|-2-----3--5--------2-----3--0---------------------|
E|--------------------------------------------------|


e|--------------------------------------------------|
B|-0------------------------------------------------|
G|----0--------2-----0------------------------------|
D|-------0--------0---------------------------------|
A|----------0---------------------------------------|
E|-------------------3------------------------------|



That's it, its my first tab, but I'm pretty sure its 100% accurate.
All notes are triplets except for the bridge with quarter notes.

Email me at Knabe@vt.edu if you see something wrong. thanks

Related for The Afternoon tab