Guitaretab - guitar tabs
Song name
# A B C D E F G H I J K L M N O P Q R S T U V W X Y Z

7 Deadly Sins - Forgoten Children tab

this is the 7 deadly sinz best song
Intro repeat            the forgotten children             repeat

e--------------------------------!---------------------------------------|
b--------------------------------!---------------------------------------|
g--------------------------------!---------------------------------------|
d--------------------------------!--------------------------------0----0-|
a--------------------------------!-14-16-1214-pp-14-16-12-14---12---12--|
e-12-14-10-12-12-/14-10-/12------!-12-14-10-12-pp-12-14-10-12-10---10----|

                                               under palm mute
e----------------------------------------------!-------------------------!
b----------------------------------------------!-------------------------!
g----------------------------------------------!-------------------------!
d-----0----0----0----0-------------------------!-------------------------!
a---12---14---14---14-14-16-12-14-14-16-12-14-!14-14-14-14-14-14-14-/15-!
e-10---12---12---12----12-14-10-12-12-14-10-12-!12-12-12-12-12-12-12-/13-!
                                                               Ends here
Repeat                                     repeat
E--------------------------------!---------------------------!
B--------------------------------!---------------------------!
G--------------------------------!-7-7-p-5-5-3-p-3-p-3-p-5-7-!
D---0---0------------0-let ring--!-7-7-p-5-5-3-p-3-p-3-p-5-7-!
A-9---7---5-let ring------------!---------------------------!
E-7---5---3----------------------!---------------------------!

Repeat
E-----------------------------!-----------------------------------!
B-----------------------------!-----------------------------------!
G-7-7-------5-5-------3-3-1-2-!-7-7-------5-5-----3-3-1-2-7-let---!
D-7-7-7-6-5-5-5-5-4-3-3-3-1-2-!-7-7-7-6-5-5-5-4-3-3-3-1-2-7-ring--!
A-----------------------------!-----------------------------------!
e-----------------------------!-----------------------------------!

outro
E----------------------------------------------------!
B----------------------------------------------------!
G-7-7-p-5-5-3-p-3-p-3-p-5-7-7-7-7-7b-7b-7b-7-let---7-!
D-7-7-p-5-5-3-p-3-p-3-p-5-7-7-7-7-7b-7b-7b-7-ring--7-!
A----------------------------------------------------!
e----------------------------------------------------!
[ Tab from: http://www.guitaretab.com/numeric/7-deadly-sins/52868.html ]
solo
E-----------------------------------------------------------------------|
B-----------------------------------------------------------------------|
G--------------------------------------------------------------------0--|
D----------------------------------------------------------------0-3b---|
A-------------------------------------------------------------0-3-------|
E-0-5-0-4-0-3-0-4-0-5-0-4-0-3-0-4-0-5-0-4-0-3-0-3-0-3-0-3b-0-3----------|


E-------------------------------------------------------------|
B-------------------------------------------------------------|
G-0-3-0-2-0-1-0-2-0-3b---------0-3-0-2-0-1-0-23------------0-|
D--------------------------0-3b-------------------------0-3b--|
a-----------------------0-3--------------------------0-3------|
E--------------------0-3--------------------------0-3---------|


E-------------------------------------------0-3-0-2-0-1-0-2-0-3b-0-|
B----------------------0-3-0-2-0-1-0-2-0-3-0-----------------------|
G-0-3-0-2-0-1-0-2-0-3-0--------------------------------------------|
D------------------------------------------------------------------|
A------------------------------------------------------------------|
E------------------------------------------------------------------|


E-0-3-------------------!--------------------------------------------|
B----0-3----------------!--------------------------------------------|
G-------0-3-------------!--------------------------------------------|
D----------0-3----------!-------0-1-0-1---------0-1-0-2-0-3----------|
A-------------0-3-------!----0-2-------0-2---0-2-----------0-3-------|
e----------------0-3b-0-!-0-3-------------0-3-----------------0-3b-0-|

under palm mute
e--------------------------!
b--------------------------!
g--------------------------!
d--------------------------!
a-2-0-2-2-2-2-2-2-2-2b-2---!
e-0-0-0-0-0-0-0-0-0-0b-0---!
                 ends here


in a place far away
in a room locked away
lays the forgotten
the children that saw too much

I feel the fear
And the looks on their face
So confused
So undeserving of this fate

they lay there wounded
with scars on the face
the slaves of the human race
look at the souls that u took away

the room filled with thick black smoke
no light
10 black years in this big black hole
all they want is to see their folks

oh yeah

scared and lonely
I know just how they feel
To lie there waiting
With tears In my face

mmhmm
Related for Forgoten Children tab