Song name
# A B C D E F G H I J K L M N O P Q R S T U V W X Y Z

7 Seconds - Bully tab

song: bully
by: 7 seconds

verse
E---------------------|
B---------------------|
G---------------------|
D--7-77---------------|
A--5-55-7-77-99-4444--|
E-------5-55-77-2222--|

chorus
E---------------------|
B---------------------|
G---------------------|
D---------------------|
A--7-777777-4-444444--|
E--5-555555-2-222222--|

bridge
E---------------------------------------|
B---------------------------------------|
G---------------------------------------|
D--7-777777-----------------------------|
A--5-555555-7-777777-4-444444-4-444444--|
E-----------5-555555-2-222222-2-222222--|

timing:
verse...8x
chorus..4x
verse...4x
chorus..4x
bridge..2x
chorus..4x
verse...4x
chorus..4x
Tap to rate this tab
 
# A B C D E F G H I J K L M N O P Q R S T U V W X Y Z