Song name
# A B C D E F G H I J K L M N O P Q R S T U V W X Y Z

7 Seconds - Young Till I Die tab

7 SECONDS: Young 'till Idie
Verse
e|--------------------------------------------------------------------|
B|--------------------------------------------------------------------|
G|--------6-----------------------------------------------------------|
D|--9-----4-----------------------------------------------------------|
A|--7--9-----6--------------------------------------------------------|
E|-----7-----4--------------------------------------------------------|

Pre-chorus
e|--------------------------------------------------------------------|
B|--------------------------------------------------------------------|
G|--------------------------------------------------------------------|
D|--------------------------------------------------------------------|
A|--4--6--------------------------------------------------------------|
E|--2--4--------------------------------------------------------------|

Chorus
e|--------------------------------------------------------------------|
B|--------------------------------------------------------------------|
G|--------------------------------------------------------------------|
D|--9-----6-----------------------------------------------------------|
A|--7--9--4--6--------------------------------------------------------|
E|-----7-----4--------------------------------------------------------|

Lyrics:

Waiting long 'till 21.
For me this fight has just begun.
Go to clubs, drink alcohol.
makes you feel like you're ten feet tall.

I don't want to grow up.
I'm never getting old.
I'd rather work 9 to 5
than drink to stay alive.

I'm gonna stay young 'till I die.

Grow up fast, you'lldie soon.
I'LL NEVER FUCKING BE LIKE YOU.
Finish school, grab a wife,
you'll be dead before you're
thirty-five.

I don't want to grow up.
I'm never getting old.
I'd rather work 9 to 5
than drink to stay alive.

I'm gonna stay young 'till I die.
I'm gonna stay young 'till I die.
Tap to rate this tab
# A B C D E F G H I J K L M N O P Q R S T U V W X Y Z