Song name
# A B C D E F G H I J K L M N O P Q R S T U V W X Y Z

7 Seconds - Redneck Society tab

7 Seconds - Redneck Society
Send corrections to ghostcow@gmail.com


Verse
E|----------------------------------------| 
B|----------------------------------------| 
C|----------------------------------------| 
D|--7--7-7--10-10-10----7--7-7--10-10-10--| x4 
A|--7--5-5--8--8--8-----7--5-5--8--8--8---| 
E|--5-------------------5-----------------| 

Chorus 
E|-------------------------------|    |-----------------------------| 
B|-------------------------------|    |-----------------------------| 
C|-------------------------------|    |-----------------------------| 
D|--9-8--6-6-6-6---9-8--6-6-6-6--| x2 |--4-4-4--6-6-6--7-7-7-7-7-7--| 
A|--7-6--6-6-6-6---7-6--6-6-6-6--|    |--4-4-4--4-4-4--5-5-5-5-5-5--| 
E|-------4-4-4-4--------4-4-4-4--|    |--2-2-2----------------------| 

Verse 
E|----------------------------------------| 
B|----------------------------------------| 
C|----------------------------------------| 
D|--7--7-7--10-10-10----7--7-7--10-10-10--| x4 
A|--7--5-5--8--8--8-----7--5-5--8--8--8---| 
E|--5-------------------5-----------------| 

Chorus 
E|-------------------------------|    |-----------------------------| 
B|-------------------------------|    |-----------------------------| 
C|-------------------------------|    |-----------------------------| 
D|--9-8--6-6-6-6---9-8--6-6-6-6--| x2 |--4-4-4--6-6-6--7-7-7-7-7-7--| 
A|--7-6--6-6-6-6---7-6--6-6-6-6--|    |--4-4-4--4-4-4--5-5-5-5-5-5--| 
E|-------4-4-4-4--------4-4-4-4--|    |--2-2-2----------------------| 

E|--------|
B|--------|
C|--------|
D|---7----|
A|---7----|
E|---5----|
Tap to rate this tab
# A B C D E F G H I J K L M N O P Q R S T U V W X Y Z