Song name
# A B C D E F G H I J K L M N O P Q R S T U V W X Y Z

7 Seconds - You Lose tab

Help us improve GuitareTab! Take a short survey!
song: you lose
by: 7 seconds

/ means slide down the neck

verse
E----------------|
B----------------|
G----------------|
D--1010----7777--|
A---8-8-99-5555--|
E-------77-------|

chorus
E--------------------------|
B--------------------------|
G--------------------------|
D------------------10------|
A--6/77-6/77-6/77---8--10--|
E--4/55-4/55-4/55-------8--|

timing:
verse....8x
chorus...2x
verse....8x
chorus...4x

well, thats the whole song. 40 some odd seconds of pure punk rock at its fastest. have 
with it.
Related for You Lose tab