Song name
# A B C D E F G H I J K L M N O P Q R S T U V W X Y Z

7 Seconds - Not Just Boys Fun tab

song: not just boys fun
by: 7 seconds

E--------------------------------|
B--------------------------------|
G--------------------------------|3x
D--99999999----------5555-77-88--|
A--77777777-77777777-3333-55-66--|
E-----------55555555-------------|

E------------|
B------------|
G------------|1x
D--99999999--|
A--77777777--|
E------------|

E---------------------|
B---------------------|
G---------------------|4x
D--77777777-----------|
A--55555555-77777777--|
E-----------55555555--|

E---------------------------------------------------------|
B---------------------------------------------------------|
G---------------------------------------------------------|1x
D---------------------7-7-7-7------------------7----------|
A--5-5--6-6--8-8-8-8--5-5-5-5--5-5--6-6--8-8-8-5-7-7-7-7--|
E--3-3--4-4--6-6-6-6-----------3-3--4-4--6-6-6---5-5-5-5--|

E---------------------------------------------------|
B---------------------------------------------------|
G---------------------------------------------------|1x
D---------------------7-7-7-7------------------7----|
A--5-5--6-6--8-8-8-8--5-5-5-5--5-5--6-6--8-8-8-5-7--|
E--3-3--4-4--6-6-6-6-----------3-3--4-4--6-6-6---5--|

just play all these riffs in order twice and thats the whole song.
Tap to rate this tab
# A B C D E F G H I J K L M N O P Q R S T U V W X Y Z