Song name
# A B C D E F G H I J K L M N O P Q R S T U V W X Y Z

7 Year Bitch - Sore Subject tab

7 Year Bitch
Sore Subject
Album: Gato Negro

E|--------------------------------------------------------|
B|--------------------------------------------------------|
G|--------------------------------------------------------|
D|--------------------------------------------------------|
A|--------------------------------------------------------|
E|--1--1--1--1--1--1--1--1--1--1--4--4--4--4--4--6--6--6--|


E|--------------------------------------------------------|
B|--------------------------------------------------------|
G|--------------------------------------------------------|
D|--3--3--3--3--3--3--3--3--3--3--6--6--6--6--6--8--8--8--|
A|--3--3--3--3--3--3--3--3--3--3--6--6--6--6--6--8--8--8--|
E|--1--1--1--1--1--1--1--1--1--1--4--4--4--4--4--6--6--6--|

thats basically it...
Tap to rate this tab
 
# A B C D E F G H I J K L M N O P Q R S T U V W X Y Z