Song name
# A B C D E F G H I J K L M N O P Q R S T U V W X Y Z

702 - Where My Girls At tab

                       702-Where my girls at
 
    
|---1-------8-----1---------|1--------9-----9---------|3-------6-----3--|
|---1-------------1---------|---------------9---------|5-------------5--|
|---13------------17--------|3--------------6---------|3-------------3--|
|---22------------18--------|---------------8---------|--------------20-|
|---8-------------8---------|1--------------1---------|3-------------3--|
|---------------------------|-------------------------|-----------------|

 
|---1--------8-----4---------|1---------8-----1---------|1--------9-----9---------|3-------6-----3--|
|---9--------------1---------|1---------------1---------|---------------9---------|5-------------5--|
|---5--------------10--------|13--------------17--------|3--------------6---------|3-------------3--|
|---3--------------3---------|22--------------18--------|---------------8---------|--------------20-|
|----------------------------|8---------------8---------|1--------------1---------|3-------------3--|
|----------------------------|1-------------------------|6--------------6---------|0-------------0--|

 
|---1----------8-----4---------|1--------------1---------|1--------4---------|3-----------3---------|
|---9----------------1---------|1--------------1---------|---------2---------|5-----------5---------|
|---5----------------10--------|13-------------13--------|3--------3---------|3-----------3---------|
|---3----------------3---------|3--------------3---------|---------15--------|----------------------|
|--------------------3---------|-------------------------|1--------1---------|3-----------3---------|
|---1--------------------------|1--------------1---------|6--------6---------|0-----------0---------|


|---1--------------4---------|1-------------|1---------4---------|3-------------3---------|
|---9--------------1---------|1-------------|----------2---------|5-------------5---------|
|---5--------------10--------|13------------|3---------3---------|3-------------3---------|
|---3--------------3---------|3-------------|----------15--------|------------------------|
|------------3---------------|--------------|1---------1---------|3-------------3---------|
|---1------------------------|1-------------|6---------6---------|0-------------0---------|


TabsMail...
http://tabsmail.8m.com
!Exclusive-TabsMail!

Tap to rate this tab
 
# A B C D E F G H I J K L M N O P Q R S T U V W X Y Z