Song name
# A B C D E F G H I J K L M N O P Q R S T U V W X Y Z

71 Gaps - Unnamed Slow Song tab

===========================================================
	Artist: 71 Gaps
	  Song: Unnamed Slow Song
	 Album: n/a
===========================================================

Tabbed: ajframpton@yahoo.com

Tuning: standard

VERSE

|----------------------------------|
|----------------------------------|
|-5-5-5-5-4-4-4-4-7-7-7-7-2-2-2-2--|
|-5-5-5-5-4-4-4-4-7-7-7-7-2-2-2-2--|repeat
|-3-3-3-3-2-2-2-2-5-5-5-5-0-0-0-0--|
|----------------------------------|


BRIDGE

|--------------------------|
|----0------------0--------|
|---------0-----------0----|
|--------------------------|repeat a few times
|--------------------------|
|--------------------------|

then bridge ends with this..

|------------------|
|--0--------0------|
|-----0-------0----|
|--------0------0--|
|------------------|
|------------------|


RIFF 2

"you and me..."
|-------------------------|
|-------------------------|
|--5-4--7-7-7-7--2-2-2-2--|
|--5-4--7-7-7-7--2-2-2-2--|
|--3-2--5-5-5-5--0-0-0-0--|
|-------------------------|


SOLO

|-----------------------------------------------------------------|
|-----------------------------------------------------------------|
|-----------------------------------------------------------------|
|--5--3----2--0--5--3----2-----5--3----2-----5--3--2--3--2--0-----|repeat
|---------------------------0-------------0--------------------0--|
|-----------------------------------------------------------------|
Tap to rate this tab
# A B C D E F G H I J K L M N O P Q R S T U V W X Y Z