Song name
# A B C D E F G H I J K L M N O P Q R S T U V W X Y Z

77 Bombay Street - 47 Millionaires tab

77 Bombay Street - 47 Millionaires
tabbed by igmeiner@gmx.net
                                                                 play 2 times     End
  Em                     G                  D                     A       C        Em
e-----12---12------12-|-----10---10----10-|-----10----12--10----|----9-------8---||s12|
b-12----12------12----|-12-----12----12---|-10----10---------10-|-10---10-8----8-||s12|
g---------------------|-------------------|---------------------|----------------||---|
D---------------------|-------------------|---------------------|----------------||---|
A---------------------|-------------------|---------------------|----------------||---|
E---------------------|-------------------|---------------------|----------------||---|
Verse:
Em              G                              D        
47 Millionaires on a ship with marble squares, licking up their lollipops, 
A           C
no one ever interrups
Em              G                              D
47 Millionaires on a ship with marble squares, playing with their teddy bears, 
A                 C      Em
talking 'bout the rising fares
Em              G                              D
47 Millionaires on a ship with marble squares, whistling to their favorite song, 
A                  C
dancing, loughing, all night long
Em              G                              D
47 Millionaires on a ship with marble squares, praying to the morning sun, 
A                  C      Em
talking with their golden tongue

Prechorus:
       G            D      Em          G            D      Em 
And I wished I was one of them, and I wished I was one of them

Solo:
  Em                 G                      D               A        C     2x   Em
e-----------------------------------------------------------------------------|---
b-5---5--7--8---8-10-12--12-15-12--10-8-10--10-12-10---8--7-10-10-12-10-8-7-8-|-5-
g-----------------------------------------------------------------------------|---
D-2---2--4--5---5--7--9---9-12-9---7--5--7---7--9--7---5--4--7--7--9-7545-|-2-
A-----------------------------------------------------------------------------|---
E-----------------------------------------------------------------------------|---

Verse:
Em              G                                    D
47 Millionaires on a ship with marble squares, there was a wave, that killed 
             A            C
them all and now the lollipops are gone
Em              G                              D
47 Millionaires on a ship with marble squares, travelling to the Nowhere-Land, 
A                     C     Em
where nasty pleasures never end (Intro melody in the back)

Prechorus:
      G            D      Em          G            D      Em 
And I wished I was one of them, and I wished I was one of them

Bridge:
    Em             D               Em        D              Em           
Hey tell me how can it be, that money can set you free,  tell me 
    D               C         D
how can it be, that money can set you...
Em          D               Em        D              Em           
Tell me how can it be, that money can set you free,  tell me 
    D               C         D
how can it be, that money can set you,  
C         D          Em
money can set you  freeeee

Chorus:
    C                            G
I'd love to be a millionnaire, I wished I had a golden mare
    D                                  Em
And I would waste my precious time, by looking for the perfect rime
C                           G
Life is easy, life is good, it would be like Hollywood
   D            C      Em
If I could be a millionnaire

    C                            G
I'd love to be a millionnaire, I wished I had a golden mare
    D                                  Em
And I would waste my precious time, by looking for the perfect rime
C                           G
Life is easy, life is good, it would be like Hollywood
   D            C      Em
If I could be a millionnaire

D            C      Em
If only I could be a millionnaire...
Tap to rate this tab
 
# A B C D E F G H I J K L M N O P Q R S T U V W X Y Z