Song name
# A B C D E F G H I J K L M N O P Q R S T U V W X Y Z

78 Saab - No Illusions tab

78 Saab - No Illusions
Its off The Secret Life Of Us Soundtrack.


Verse:
    G               Am      C
E-|-3---3---3---3---0---0---0---0--0-|
B-|-3---3---1---0---1---1---1---1--1-|
G-|-0---0---0---0---2---2---0---0--0-|
D-|-0---0---0---0---2---2---2---2--2-|
A-|-x---x---x---x---0---0---3---3--3-|
E-|-3---3---3---3--------------------|

    G               Am      C
E-|-3---3---3---3---0---0---0---0--0-|
B-|-3---3---1---0---1---1---1---1--0-|
G-|-0---0---0---0---2---2---0---0--0-|
D-|-0---0---0---0---2---2---2---2--2-|
A-|-x---x---x---x---0---0---3---3--3-|
E-|-3---3---3---3--------------------|

Chorus:
    F   Am  G
E-|-1---0---3--|-
B-|-1---1---3--|-
G-|-2---2---0--|-
D-|-3---2---0--|-
A-|-3---0---x--|-
E-|-1-------3--|-

Bridge:
    Am    D     C  B/C G     Am    E     D
E-|--------------------3--3-------------------------|-
B-|-1--1--3--3--1--1---3--3--1--1--0--0--3--3--3--3-|-
G-|-2--2--2--2--0--0---0--0--2--2--1--1--2--2--2--2-|-
D-|-2--2--0--0--2--0---0--0--2--2--2--2--0--0--0--0-|-
A-|-0--0--------3--2---x--x--0--0--2--2-------------|-
E-|--------------------3--3--------0--0-------------|-


You have to listen to get the strumming. HY.
Tap to rate this tab
# A B C D E F G H I J K L M N O P Q R S T U V W X Y Z