Song name
# A B C D E F G H I J K L M N O P Q R S T U V W X Y Z

7horse - Meth Lab Zoso Sticker tab

----------------------------------------------------------------------------
7Horse - METH LAB ZOSO STICKER
----------------------------------------------------------------------------
Special Thanks go to Leon Kleyn

You might have heard this one on wolf of wall street. The song I think its in open 
G tuning but if you wanna play it on standard tuning check
hollowcam version. Moreover you'll need a slide. 
Feel free to correct or add missing part. 
Enjoy.

Band Website: http://7horsemusic.com/

Tuning: Open G          -       D G D G B d

Intro/Main Riff
d|------0----------0----------------------|
B|6-8-6---0-------------------------------|
G|----------3-4-3-4--3--------------------|
D|--------------------5-3-5-3-5-----------|
G|----------------------------------------| 
D|----------------------------------------|x3

d|------0----------0-0--------------------|
B|6-8-6---0----------0--------------------|
G|----------3-4-3-4--0--------------------|
D|-------------------0--------------------|
G|-------------------0--------------------|
D|----------------------------------------|

Solo
d|--------------------------------------------------------------|
B|---3----3----3----3---------------3---------------------------|
G|3h4--3h4--3h4--3h4--3p0--------3h4--3p0----3p0----3/5-5/3-----|
D|------------------------3p0-------------3h5----3h5------------|
G|--------------------------------------------------------------| 
D|--------------------------------------------------------------|

Slide guitar
d|----------------------------------------|
B|-------------9/12-----------------------|
G|-------------9/12-----------------------|
D|3/5-5--5/3-0----------------------------|
G|3/5-5--5/3-0----------------------------| 
D|----------------------------------------|


Improvise a little bit on the last solo
Chords used:
d|--3--|--5--|--7--|--9--|--12--|
B|--3--|--5--|--7--|--9--|--12--|
G|--3--|--5--|--7--|--9--|--12--|
D|-----|-----|-----|-----|------|
G|-----|-----|-----|-----|------| 
D|-----|-----|-----|-----|------|
Tap to rate this tab
# A B C D E F G H I J K L M N O P Q R S T U V W X Y Z