Guitaretab - guitar tabs
Song name
# A B C D E F G H I J K L M N O P Q R S T U V W X Y Z

8 Foot Sativa - I Live My Death tab

An awesome song by 8 foot sativa!
I know the intro is played on bass but I've created the tab for guitar.
Please bear with me, this is my first tab (of hopefully many more to come).
I might finish the song sometime..
Enjoy! And please rate/give me feedback! Thanks

E|---------------------------------------------------------------|
B|---------------------------------------------------------------|
G|---------------------------------------------------------------|
D|-0-----0-----------4-----0-----0-----------5-----4-0-----0-----|
A|-------------4-----------------------4-------------------------|
E|---0-0---0-0---0-0---0-0---0-0---0-0---0-0---0-0-----0-0---0-0-|

E|-----------------------------------------------------------|
B|-----------------------------------------------------------|
G|-------------4-----6-7-4-----4-----4-----4-----4-----4-----|
D|-------4-----------------------------5-5---5-5---5-5---5-5-|
A|-4---------------------------------------------------------|
E|---0-0---0-0---0-0-------0-0---0-0-------------------------|
[ Tab from: http://www.guitaretab.com/numeric/8-foot-sativa/109933.html ]
E|-------------------------------------------------------------------------|
B|-------------------------------------------------------------------------|
G|-7-----7-----7-----7-----6-----6-----6-----6-----3-----3-----3-----3-----|
D|---3-3---3-3---3-3---3-3---4-4---4-4---4-4---4-4---4-4---4-4---4-4---4-4-|
A|-------------------------------------------------------------------------|
E|-------------------------------------------------------------------------|

E|-------------------------------------------------------------------------|
B|-------------------------------------------------------------------------|
G|-4-----4-----4-----4-----7-----7-----7-----7-----6-----6-----6-----6-----|
D|---5-5---5-5---5-5---5-5---3-3---3-3---3-3---3-3---4-4---4-4---4-4---4-4-|
A|-------------------------------------------------------------------------|
E|-------------------------------------------------------------------------|

E|------------------------|-------------------------------------------------|
B|------------------------|-------------------------------------------------|
G|-3-----3-----7-6-3-4----|-------------------------------------------------|
D|---4-4---4-4---------5-4|-------------------------------------------------|
A|------------------------|-5-----4-----2-----1-----------------0-----2---4-|
E|------------------------|---0-0---0-0---0-0---0-0-3-0-0-2-0-0---0-0---0---|

                                     Repeat this last riff 4X
Related for I Live My Death tab
×
I Live My Death