Song name
# A B C D E F G H I J K L M N O P Q R S T U V W X Y Z

8 Foot Sativa - Destined To Be Dead tab

8 Foot Sativa - Destined To Be Dead Tab

Tabbed By Rory

Email Me @ roryg56@hotmail.com, please rate. :D

e|-------------------------------|
b|-------------------------------|
g|-------------------------------| Intro x 2
d|-11--7--9----------------------|
a|-11--7--9----------------------|
D|-11--7--9----------------------|

e|------------------------------------------------------------------|
b|------------------------------------------------------------------|
g|------------------------------------------------------------------|
d|------------------------------------------------------------------|
a|-7-----7-----7---6-----6-----6---4-----4-----4---7---9---9-11-----|
D|---0-0---0-0---0---0-0---0-0---0---0-0---0-0---0---0---0--------\-|
                                                      First time fast picking, next time like this
e|------------------------------------------------------------------|
b|------------------------------------------------------------------|
g|------------------------------------------------------------------|
d|------------------------------------------------------------------|
a|-7-----7-----7---9-----6-----6-7-4-----4-----4---7-----6-----2~---|
D|---0-0---0-0---0---0-0---0-0-------0-0---0-0---0---0-0---0-0------|

e|----------------------------------|
b|----------------------------------|
g|----------------------------------|
d|----------------------------------|
a|-----6-7-9-7-6---9-7-0-6-7--------|
D|--7------------6----------------\-|
                                   This x2
e|----------------------------------|
b|----------------------------------|
g|----------------------------------|
d|-6-------------6------------------|
a|-4-------------4------------------|
D|---0-0-0-0-0-0--------------------|

e|--------------------------------|
b|--------------------------------|
g|--------------------------------|
d|-6-------------6----------------| Verse 1
a|-4-------------4---6-7---9-7----|
D|---0-0-0-0-0-0---7-----6--------|

e|-------------------------------|
b|-------------------------------|
g|-------------------------------| Chorus 1
d|-11--7--9----------------------|
a|-11--7--9----------------------|
D|-11--7--9----------------------|

Thats pretty much the whole song, once you put the riffs together.

Bout time there was a tab for this.
Tap to rate this tab
# A B C D E F G H I J K L M N O P Q R S T U V W X Y Z