Song name
# A B C D E F G H I J K L M N O P Q R S T U V W X Y Z

8 Foot Sativa - I Live My Death tab

Drop D

I made this more for an expert guitarist to learn and then fix.

E|-------------------------------------------------------------------------|
B|-------------------------------------------------------------------------|
G|-------------------------------------------------------------------------|
D|---7---7---7---7---8---8---8---8---7---7---7---7-------------------------|
A|---------------------------------------------------8---7---5---4---2---0-|
D|-0---0---0---0---0---0---0---0---0---0---0---0---0---0---0---0---0---0---|

E|---------------|
B|---------------|
G|---------------|
D|---------------|
A|----2p---3p----|
D|--0----0----0--|
Tap to rate this tab
 
# A B C D E F G H I J K L M N O P Q R S T U V W X Y Z