Guitaretab - guitar tabs
Song name
# A B C D E F G H I J K L M N O P Q R S T U V W X Y Z

8 Foot Sativa - Chelsea Smile tab

Chelsea Smile - 8 Foot Sativa

Drop B Tuning
B F# B E G# C#

Figured this out by ear, if you see any mistakes feel free to correct them.

Enjoy ;)


|-------|----------------------------------------------------------|
|-------|----------------------------------------------------------|
|-------|------------------GTR 2-----------------------------------|
|-------|----------[12/14-14--14/15-15]------7---------------------|
|-------|--------------------------------------10-8-7-8-10---------|
|-12\6\-|-0-000-000-12/14-14--14/15-15-8-888---------------7-8-10--|
|         . ... ...                    . ...
|------------------------------------------------------------------|
|------------------------------------------------------------------|
|------------------------------------------------------------------|
|------------------------------------7-----------------------------|
|--------------------------------------10-8------------------------|
|-0-000-000-12/14-14--14/15-15-8-888--------5-7-7-8-10-11----------|
| . ... ...                    . ...
|------------------------------------------------------------------|
|------------------------------------------------------------------|
|------------------------------------------------------------------|
|------------------------------------7-----------------------------|
|--------------------------------------10-8-7-8-10-----------------|
|-0-000-000-12/14-14--14/15-15-8-888---------------7-8-10----------|
| . ... ...                    . ...
|------------------------------------------------------------------|
|------------------------------------------------------------------|
|------------------------------------------------------------------|
|------------------------------------------------------------------|
|-------------------------------12---12-10-8-7----7-8-10-----------|
|-0-000-000-12/14-14--14/15-15-----8-----------10------------------|
  . ... ...                        .           .


|------------------------------------------------------------------|
|------------------------------------------------------------------|
|------------------------------------------------------------------|
|------------------------------------------------------------------|
|-5---8-7-6-5---7h8p7-4-5---8-7-6-7h8p7----7-6-5-------------------|
|-0-0-------0-0---------0-0-------------10-------------------------| x4
    .         .           .


|------------------------------------------------------------------|
|------------------------------------------------------------------|
|------------------------------------------------------------------|
|------------------------------------------------------------------|
|-12---12----------12---8---8---11---11h12p11----------------------|
|-12-0-12-0-000000-12-0-8-0-8-0-11-0----------15-------------------|
|    .    . ......    .   .   .    .
|------------------------------------------------------------------|
|------------------------------------------------------------------|
|------------------------------------------------------------------|
|------------------------------------------------------------------|
|-12---12----------12---8---8---10---------------------------------|
|-12-0-12-0-000000-12-0-8-0-8-0-10-10*-----------------------------|
|    .    . ......    .   .   . 
|------------------------------------------------------------------|
|------------------------------------------------------------------|
|------------------------------------------------------------------|
|------------------------------------------------------------------|
|-12---12----------12---8---8---11---11h12p11----------------------|
|-12-0-12-0-000000-12-0-8-0-8-0-11-0----------15-------------------|
|    .    . ......    .   .   .    .
|------------------------------------------------------------------|
|------------------------------------------------------------------|
|------------------------------------------------------------------|
|------------------------------------------------------------------|
|-12---12----------12---8---8---10~--------------------------------|
|-12-0-12-0-000000-12-0-8-0-8-0-10~--------------------------------|
     .    . ......    .   .   .


|------------------------------------------------------------------|
|------------------------------------------------------------------|
|------------------------------------------------------------------|
|------------------------------------7-----------------------------|
|--------------------------------------10-8-7-8-10-----------------|
|-0-000-000-12/14-14--14/15-15-8-888---------------7-8-10----------|
| . ... ...                    . ...
|------------------------------------------------------------------|
|------------------------------------------------------------------|
|------------------------------------------------------------------|
|------------------------------------7-----------------------------|
|--------------------------------------10-8------------------------|
|-0-000-000-12/14-14--14/15-15-8-888--------5-7-7-8-10-11----------|
| . ... ...                    . ...
|------------------------------------------------------------------|
|------------------------------------------------------------------|
|------------------------------------------------------------------|
|------------------------------------7-----------------------------|
|--------------------------------------10-8-7-8-10-----------------|
|-0-000-000-12/14-14--14/15-15-8-888---------------7-8-10----------|
| . ... ...                    . ...
|------------------------------------------------------------------|
|------------------------------------------------------------------|
|------------------------------------------------------------------|
|------------------------------------------------------------------|
|-------------------------------12---12-10-8-7----7-8-10-----------|
|-0-000-000-12/14-14--14/15-15-----8-----------10------------------|
  . ... ...                        .           .


|------------------------------------------------------------------|
|------------------------------------------------------------------|
|------------------------------------------------------------------|
|------------------------------------------------------------------|
|-5---8-7-6-5---7h8p7-4-5---8-7-6-7h8p7----7-6-5-------------------|
|-0-0-------0-0---------0-0-------------10-------------------------| x2
    .         .           .

[ Tab from: http://www.guitaretab.com/numeric/8-foot-sativa/243272.html ]
|------------------------------------------------------------------|
|------------------------------------------------------------------|
|------------------------------------------------------------------|
|------------------------------------------------------------------|
|-12---12----------12---8---8---11---11h12p11----------------------|
|-12-0-12-0-000000-12-0-8-0-8-0-11-0----------15-------------------|
|    .    . ......    .   .   .    .
|------------------------------------------------------------------|
|------------------------------------------------------------------|
|------------------------------------------------------------------|
|------------------------------------------------------------------|
|-12---12----------12---8---8---10---------------------------------|
|-12-0-12-0-000000-12-0-8-0-8-0-10-10*-----------------------------|
|    .    . ......    .   .   . 
|------------------------------------------------------------------|
|------------------------------------------------------------------|
|------------------------------------------------------------------|
|------------------------------------------------------------------|
|-12---12----------12---8---8---11---11h12p11----------------------|
|-12-0-12-0-000000-12-0-8-0-8-0-11-0----------15-------------------|
|    .    . ......    .   .   .    .
|------------------------------------------------------------------|
|------------------------------------------------------------------|
|------------------------------------------------------------------|
|------------------------------------------------------------------|
|-12---12----------12---8---8---10-3~------------------------------|
|-12-0-12-0-000000-12-0-8-0-8-0-10-3~------------------------------|
     .    . ......    .   .   .


|------------------------------------------------------------------|
|------------------------------------------------------------------|
|------------------------------------------------------------------|
|------------------------------------7-----------------------------|
|--------------------------------------10-8-7-8-10-----------------|
|-0-000-000-12/14-14--14/15-15-8-888---------------7-8-10----------|
| . ... ...                    . ...
|------------------------------------------------------------------|
|------------------------------------------------------------------|
|------------------------------------------------------------------|
|------------------------------------7-----------------------------|
|--------------------------------------10-8------------------------|
|-0-000-000-12/14-14--14/15-15-8-888--------5-7-7-8-10-11----------|
| . ... ...                    . ...
|------------------------------------------------------------------|
|------------------------------------------------------------------|
|------------------------------------------------------------------|
|------------------------------------7-----------------------------|
|--------------------------------------10-8-7-8-10-----------------|
|-0-000-000-12/14-14--14/15-15-8-888---------------7-8-10----------|
| . ... ...                    . ...
|------------------------------------------------------------------|
|------------------------------------------------------------------|
|------------------------------------------------------------------|
|---------------------------------------------------------0~-------|
|-------------------------------12---12-10-8-7----7-8-10--0~-------|
|-0-000-000-12/14-14--14/15-15-----8-----------10---------0~-------|
  . ... ...                        .           .


|------------------------------------------------------------------|
|------------------------------------------------------------------|
|------------------------------------------------------------------|
|-00000000-00000000-88888888---------------------------------------|
|-99999999-55555555-88888888---10---6p5---3h4----------------------|
|-00000000-00000000-88888888-0-10-0-6p5-0-3h4-0-6-5-4--------------| x4
                             .    .     .     . . . .


|------------------------------------------------------------------|
|------------------------------------------------------------------|
|------------------------------------------------------------------|
|------------------------------------------------------------------|
|-5---8-7-6-5---7h8p7-4-5---8-7-6-7h8p7----7-6-5-------------------|
|-0-0-------0-0---------0-0-------------10-------------------------| x4
    .         .           .


|------------------------------------------------------------------|
|------------------------------------------------------------------|
|------------------------------------------------------------------|
|------------------------------------------------------------------|
|-12---12----------12---8---8---11---11h12p11----------------------|
|-12-0-12-0-000000-12-0-8-0-8-0-11-0----------15-------------------|
|    .    . ......    .   .   .    .
|------------------------------------------------------------------|
|------------------------------------------------------------------|
|------------------------------------------------------------------|
|------------------------------------------------------------------|
|-12---12----------12---8---8---10---------------------------------|
|-12-0-12-0-000000-12-0-8-0-8-0-10-10*-----------------------------|
|    .    . ......    .   .   . 
|------------------------------------------------------------------|
|------------------------------------------------------------------|
|------------------------------------------------------------------|
|------------------------------------------------------------------|
|-12---12----------12---8---8---11---11h12p11----------------------|
|-12-0-12-0-000000-12-0-8-0-8-0-11-0----------15-------------------|
|    .    . ......    .   .   .    .
|------------------------------------------------------------------|
|------------------------------------------------------------------|
|------------------------------------------------------------------|
|------------------------------------------------------------------|
|-12---12----------12---8---8---10-3~------------------------------|
|-12-0-12-0-000000-12-0-8-0-8-0-10-3~------------------------------|
     .    . ......    .   .   .


|------------------------------------------------------------------|
|------------------------------------------------------------------|
|------------------------------------------------------------------|
|------------------------------------7-----------------------------|
|--------------------------------------10-8-7-8-10-----------------|
|-0-000-000-12/14-14--14/15-15-8-888---------------7-8-10----------|
| . ... ...                    . ...
|------------------------------------------------------------------|
|------------------------------------------------------------------|
|------------------------------------------------------------------|
|------------------------------------7-----------------------------|
|--------------------------------------10-8------------------------|
|-0-000-000-12/14-14--14/15-15-8-888--------5-7-7-8-10-11----------|
| . ... ...                    . ...
|------------------------------------------------------------------|
|------------------------------------------------------------------|
|------------------------------------------------------------------|
|------------------------------------7-----------------------------|
|--------------------------------------10-8-7-8-10-----------------|
|-0-000-000-12/14-14--14/15-15-8-888---------------7-8-10----------|
| . ... ...                    . ...
|------------------------------------------------------------------|
|------------------------------------------------------------------|
|------------------------------------------------------------------|
|------------------------------------------------------------------|
|-------------------------------12---12-10-8-7----7-8-10--5--------|
|-0-000-000-12/14-14--14/15-15-----8-----------10---------0--------|
  . ... ...                        .           .
Related for Chelsea Smile tab
Chelsea Smile chords by 8 Foot Sativa