Song name
# A B C D E F G H I J K L M N O P Q R S T U V W X Y Z

8 Foot Sativa - Chelsea Smile tab

I noticed most of the tabs here are in the wrong tuning- its in drop b!
Also i included the bridge which seems to be a bit of a secret? i havnt seen it on another tab lol
this is done by ear although im pretty sure its right, it all sounds legit with the song :)



slide in (two guitars the other one slides in lower)

C#|---------------------------------------------------------------------|
G#|---------------------------------------------------------------------| 
E |---------------------------------------------------------------------| 
B |---------------------------------------------------------------------| 
F#|----------------------------------------------------------12\--------| 
B |----------------------------------------------------------12\--------|

intro\main riff

C#|---------------------------------------------------------------------|
G#|---------------------------------------------------------------------| 
E |------------------7/-9---9--9/10--10---------------------------------| 
B |--------------------------------------------7------------------------| 
F#|-0---000---0-0-0--5/-7---7--7/8----8----------10-8--7-8-10-----------| 
B |-0---000---0-0-0----------------------8-888------------------7-8-10--| 
    .   ...   . . .                      . ...

C#|-----------------------------------------------------------------------| 
G#|-----------------------------------------------------------------------| 
E |------------------7/-9---9--9/10--10-----------------------------------| 
B |--------------------------------------------7--------------------------| 
F#|-0---000---0-0-0--5/-7---7--7/8---8-----------10-8---------------------| 
B |-0---000---0-0-0----------------------8-888---------5--7-7--10--11-11--| 
    .   ...   . . .                      . ...

C#|---------------------------------------------------------------------|
G#|---------------------------------------------------------------------| 
E |------------------7/-9---9--9/10--10---------------------------------| 
B |--------------------------------------------7------------------------| 
F#|-0---000---0-0-0--5/-7---7--7/8----8----------10-8--7-8-10-----------| 
B |-0---000---0-0-0----------------------8-888------------------7-8-10--| 
    .   ...   . . .                      . ...

C#|----------------------------------------------------------------------| 
G#|----------------------------------------------------------------------| 
E |-------------------7/9---9---9/10--10---------------------------------| 
B |---------------------------------------7-----7------------------------| 
F#|-0--000---0-0-0----5/7---7---7/8----8-----------10-8-7--------7-8-10--| 
B |-0--000---0-0-0--------------------------888----------10-10-10--------|
    .  ...   . . .                          ...            ...
  
verse riff

C#|---------------------------------------------------------------------|
G#|---------------------------------------------------------------------| 
E |---------------------------------------------------------------------| x4
B |-------------------2h3p2---------------------------------------------| 
F#|-5-----8-7-6-5-----------4-5-----8-7-6-7h8p7----7-8-10---------------| 
B |---0-0---------0-0-----------0-0-------------10----------------------|
      . .         . .           . .            

that other verse riff (these are definately power chords if you listen closely)
play these twice but on the last one no pinch harmonic
  
C#|---------------------------------------------------------------------|
G#|---------------------------------------------------------------------| 
E |---------------------------------------------------------------------| 
B |-7-----7------------7-----3-----3-----6-----6h7p6--------------------| 
F#|-5-----5------------5-----1-----1-----4-----------8------------------|
B |---0-0---0-0-000000---0-0---0-0---0-0---0-0--------------------------|
      . .   . . ......   . .   . .

C#|---------------------------------------------------------------------|
G#|---------------------------------------------------------------------| 
E |---------------------------------------------------------------------| 
B |-7-----7------------7-----3-----3-----5------------------------------| 
F#|-5-----5------------5-----1-----1-----3------4*----------------------|
B |---0-0---0-0-000000---0-0---0-0---0-0--------------------------------|
      . .   . . ......   . .   . .   . .        *=pinch harmonic

i wont put the other riffs in again its just repeating them :D



bridge
probably isnt 100% but its alot closer than any other tab ive seen
C#|---------------------------------------------------------------------|
G#|---------------------------------------------------------------------| 
E |---------------------------------------------------------------------| 
B |-0-------------------------------------------------------------------| 
F#|-0-------------------------------------------------------------------|
B |-0-------------------------------------------------------------------|

C#|---------------------------------------------------------------------|
G#|---------------------------------------------------------------------| 
E |-6----6----------------------------------8\7-------------------------| 
B |-4----4----7----7------------------5-----6\5-------------------------| 
F#|-----------5----5----8----8-----0--3--0--6\5--0--6\5--0--6--5--4-----|
B |---------------------8----8-----0-----0-------0--6\5--0--6--5--4-----|
                                   .     .       .       .  .  .  .
Tap to rate this tab
 
# A B C D E F G H I J K L M N O P Q R S T U V W X Y Z