Song name
# A B C D E F G H I J K L M N O P Q R S T U V W X Y Z

8 Foot Sativa - Destined To Be Dead tab

8 Foot Sativa - Destined To Be Dead Tab

 Thought i'd share this
 The most correct tab of this you will find. should be near/perfect
 you can figure out the arrangement. enjoy

 -INTRO/CHORUS

C#|------------------------------------------|
G#|------------------------------------------|
E |-9---9--9---9--9--9--9---9--9---9--9--9---|  
B |------------------------------------------|
F#|-7---7--7---7--7--7--7---7--7---7--7--7---|
C#|---------------------8---8--8---8--8--8---|


C#|----------------------------------------------|
G#|----------------------------------------------|
E |-11--11-11--11-11-11--11--11--11--11--11--11--|  
B |----------------------------------------------|
F#|-9---9--9---9--9--9---9---9---9---9---9---9---|
C#|----------------------10--10--10--10--10--10--|


 *(there may be a harmony with this in the last chorus', theres too much noise to be sure)


 -RIFF 1                    

C#|------------------------------------------------|
G#|------------------------------------------------|
E |------------------------------------------------|
B |------------------------------------------------|
F#|-10-------10-------10---9--------9-------9------|
C#|----8-8-8----8-8-8----8----8-8-8---8-8-8---8----|
       . . .    . . .     .    . . .   . . .   .  

C#|------------------------------------------------|
G#|------------------------------------------------|
E |------------------------------------------------| 
B |------------------------------------------7-9---|
F#|-7--------7--------7----10-------12-------------|
C#|---0-0-0----0-0-0----0-----0-0-0----0-0-0-------|
      . . .    . . .    .     . . .    . . .


C#|-----------------------------------------------|
G#|-----------------------------------------------|
E |-----------------------------------------------| 
B |-----------------------------------------------|
F#|-10-------10-------10----12-------9-------9H10-|
C#|----8-8-8----8-8-8-----8----8-8-8---8-8-8------|
       . . .    . . .     .    . . .   . . . 
       
C#|-----------------------------------------------|
G#|-----------------------------------------------|
E |-----------------------------------------------| 
B |-----------------------------------------------|
F#|--7--------7--------7---10-------9H10----------|
C#|----0-0-0-----0-0-0---0----0-0-0------0-10~----|
       . . .     . . .   .    . . .      .  



 -RIFF 2

C#|----------------------------------------------------|
G#|----------------------------------------------------|
E |----------------------------------------------------| 
B |--------------------7------------7------------------| 
F#|-------7-----9--10-----10--------------10-----9h10--| 
C#|--/8-------8-----------------7-------7------7-------|


C#|----------------------------|
G#|----------------------------|
E |----------------------------|  x2
B |----------------------------| 
F#|--2----5-----3-3-2--3--5----|
C#|--0----3--0--1-1-0--1--3----|
          .  .  . . .  .  .

 -RIFF 2

C#|----------------------------------------------------------|
G#|----------------------------------------------------------|
E |----------------------------------------------------------| 
B |--------------------7------------7------------------------|
F#|-------7-----9--10-----10--------------10-----9h10--------|
C#|--/8-------8-----------------7-------7------7-------------|

 -RIFF BEFORE VERSE

C#|----------------------------|
G#|----------------------------|
E |----------------------------|  x3
B |----------------------------| 
F#|--2----5-----3-3-2--3--5----|
C#|--0----3--0--1-1-0--1--3----|
          .  .  . . .  .  .
C#|----------------------------|
G#|----------------------------|
E |----------------------------| 
B |----------------------------|  
F#|--2----5-----3--------------|
C#|--0----3--0--1--------------|
          .  .  .

 -VERSE

C#|----------------------------|
G#|----------------------------|
E |----------------------------|  x3
B |----------------------------|  *bang your head
F#|--2----5-----3-3-2--3--5----|
C#|--0----3--0--1-1-0--1--3----|
          .  .  . . .  .  .


C#|----------------------------|
G#|----------------------------|
E |----------------------------|  repeat as needed
B |-------2--------4-----------|  / = slide in/out\
F#|--/3------3-/5-----5\-------|
C#|----------------------------|
Tap to rate this tab
# A B C D E F G H I J K L M N O P Q R S T U V W X Y Z