Song name
# A B C D E F G H I J K L M N O P Q R S T U V W X Y Z

8 Foot Sativa - For Religions To Suffer tab

-------------------------------------------------------------------------------
			     SONG NAME - Band Name
-------------------------------------------------------------------------------
Tabbed by:-beyond-human-
Email:falanjis2@yahoo.co.nz

Tuning:(from low to high) b, f#, b, e, g#, c#,
          
PART A
          |pm   |pm 
e|------------------------------------------------------------|
B|------------------------------------------------------------|this part 3 
G|------------------------------------------------------------|times but afta
D|------------------------------------------------------------|the 3rd time
A|--222-5-2-5-2-2----1-1-1/4----------------------------------|play part b
E|--222-5-2-5-2-2----1-1-1/4----------------------------------|

PART B

e|--------------------------------------|
B|--------------------------------------|
G|--------------------------------------|
D|--------------------------------------|
A|--7-x-7-4-x-4-x-5-x-7\----------------|
E|--7-x-7-4-x-4-x-5-x-7\----------------|



this is nly the start bt wen i fiure the rest owt i wil change it...
by the way that other religions 2 suffer tab was me ages ago...
| /  slide up
| \  slide down
| h  hammer-on
| p  pull-off
| ~  vibrato
| +  harmonic
| x  Mute note
=====================================================================
Tap to rate this tab
# A B C D E F G H I J K L M N O P Q R S T U V W X Y Z