Song name
# A B C D E F G H I J K L M N O P Q R S T U V W X Y Z

8 Kalacas - Puercop tab

Tuning:Standard

Intro
|-----------------x3|---------------|
|-------------------|---------------|
|-------------------|---------------|
|-2-2-3-3-2-2-------|-2-2-3-3-2-2---|
|-------------2-2---|---------------|
|-------------0-0---|-------------0-|

Riff
|---------------------------------------------------|
|---------------------------------------------------|
|---------------------------------------------------|
|----------------------------------------5--4--5--4-|
|-2----2--2--2--2--2-5-7-5--2----2--2--2-3--2--3--2-|
|-0----0--0--0--0--0-3-5-3--0----0--0--0------------|

|---------------------------------------------------|
|---------------------------------------------------|
|---------------------------------------------------|
|----------------------------------------4--5--7--8-|
|-2----2--2--2--2--2-5-7-5--2----2--2--2-2--3--5--6-|
|-0----0--0--0--0--0-3-5-3--0----0--0--0------------|

Riff x2


|-----------------------------|x3
|-----------------------------|
|-----------------------------|
|-----------------------------|
|-2-2-2-2-2-2-2-2-2-2-2-2-5-5-|
|-0-0-0-0-0-0-0-0-0-0-0-0-3-3-|
  . . . . . . . . . . . .
|------------------------------------|
|------------------------------------|
|------------------------------------|
|-------------------------4--5--7--8-|
|-2-2-2-2-2-2-2-2-2-2-2-2-2--3--5--6-|
|-0-0-0-0-0-0-0-0-0-0-0-0------------|
  . . . . . . . . . . . .

Verse 1
|---------------------------------------------------|
|---------------------------------------------------|
|---------------------------------------------------|
|----------------------------------------5--4--5--4-|
|-2----2--2--2--2--2-5-7-5--2----2--2--2-3--2--3--2-|
|-0----0--0--0--0--0-3-5-3--0----0--0--0------------|

|---------------------------------------------------|
|---------------------------------------------------|
|---------------------------------------------------|
|----------------------------------------4--5--7--8-|
|-2----2--2--2--2--2-5-7-5--2----2--2--2-2--3--5--6-|
|-0----0--0--0--0--0-3-5-3--0----0--0--0------------|

Verse 1 x2


|-----------------------------|x3
|-----------------------------|
|-----------------------------|
|-----------------------------|
|-2-2-2-2-2-2-2-2-2-2-2-2-5-5-|
|-0-0-0-0-0-0-0-0-0-0-0-0-3-3-|
  . . . . . . . . . . . .

|------------------------------------|
|------------------------------------|
|------------------------------------|
|-------------------------4--5--7--8-|
|-2-2-2-2-2-2-2-2-2-2-2-2-2--3--5--6-|
|-0-0-0-0-0-0-0-0-0-0-0-0------------|
  . . . . . . . . . . . .

Verse 2
|---------------------------------------------------|
|---------------------------------------------------|
|---------------------------------------------------|
|----------------------------------------5--4--5--4-|
|-2----2--2--2--2--2-5-7-5--2----2--2--2-3--2--3--2-|
|-0----0--0--0--0--0-3-5-3--0----0--0--0------------|

|---------------------------------------------------|
|---------------------------------------------------|
|---------------------------------------------------|
|----------------------------------------4--5--7--8-|
|-2----2--2--2--2--2-5-7-5--2----2--2--2-2--3--5--6-|
|-0----0--0--0--0--0-3-5-3--0----0--0--0------------|

Verse 2 x2


|--------------|x3 |---------|
|--------------|   |---------|
|--------------|   |---------|
|-4-4--5--7--8-|   |-9-9-9-9-|
|-2-2--3--5--6-|   |---------|
|--------------|   |---------|


Guitar 1
|-------------------|x32
|-------------------|
|-------------------|
|----------10-9-7-9-|
|-7-9-10-7----------|
|-------------------|

Guitar 2
|----------------------------------------------------------------------|
|----------------------------------------------------------------------|
|----------------------------------------------------------------------|
|------------------5------------------------------------------4--------|
|-2----------------3----------------7----------------5--------2--------|
|-0---------------------------------5----------------3-----------------|

|------------------------------------------------------------------------|
|------------------------------------------------------------------------|
|------------------------------------------------------------------------|
|------------------5-5----------------------------------------4--4--4--4-|
|-2-2--------------3-3--------------7-7--------------5-5------2--2--2--2-|
|-0-0-------------------------------5-5--------------3-3-----------------|

|----------------------------------------------------------------------|
|----------------------------------------------------------------------|
|----------------------------------------------------------------------|
|------------------5------------------------------------------4--------|
|-2----------------3----------------7----------------5--------2--------|
|-0---------------------------------5----------------3-----------------|

|-------------------------------------------------------------------------|
|-------------------------------------------------------------------------|
|-------------------------------------------------------------------------|
|------------------5------------------------------------------4-4-4-4-4-4-|
|-2----------------3----------------7----------------5--------2-2-2-2-2-2-|
|-0---------------------------------5----------------3--------------------|

Riff
|---------------------------------------------------|
|---------------------------------------------------|
|---------------------------------------------------|
|----------------------------------------5--4--5--4-|
|-2----2--2--2--2--2-5-7-5--2----2--2--2-3--2--3--2-|
|-0----0--0--0--0--0-3-5-3--0----0--0--0------------|

|---------------------------------------------------|
|---------------------------------------------------|
|---------------------------------------------------|
|----------------------------------------4--5--7--8-|
|-2----2--2--2--2--2-5-7-5--2----2--2--2-2--3--5--6-|
|-0----0--0--0--0--0-3-5-3--0----0--0--0------------|

Verse 3
|---------------------------------------------------|
|---------------------------------------------------|
|---------------------------------------------------|
|----------------------------------------5--4--5--4-|
|-2----2--2--2--2--2-5-7-5--2----2--2--2-3--2--3--2-|
|-0----0--0--0--0--0-3-5-3--0----0--0--0------------|

|---------------------------------------------------|
|---------------------------------------------------|
|---------------------------------------------------|
|----------------------------------------4--5--7--8-|
|-2----2--2--2--2--2-5-7-5--2----2--2--2-2--3--5--6-|
|-0----0--0--0--0--0-3-5-3--0----0--0--0------------|

|----------------------|x4
|----------------------|
|----------------------|
|------------------4-5-|
|-2----2--2--2--2--2-3-|
|-0----0--0--0--0------|


|--------------------------------------|
|--------------------------------------|
|--------------------------------------|
|----------------------------5----4----|
|-2--------5--------7--------3----2----|
|-0--------3--------5------------------|

|---------------------------------------|
|---------------------------------------|
|---------------------------------------|
|----------------------------4--5--7--8-|
|-2--------5--------7--------2--3--5--6-|
|-0--------3--------5-------------------|

Outro
|-----------------------------------------------------|
|-----------------------------------------------------|
|-----------------------------------------------------|
|-2-2-3-3-2-2-----2-2-3-3-2-2-----2-2-3-3-2-2---------|
|-------------2-2-------------2-2-------------2--2--2-|
|-------------0-0-------------0-0-------------0--0--0-|

http://members.fortunecity.com/kalacas/index.htm

Tap to rate this tab
 
# A B C D E F G H I J K L M N O P Q R S T U V W X Y Z