Song name
# A B C D E F G H I J K L M N O P Q R S T U V W X Y Z

8 Kalacas - Santitos tab

Tuning:DADGBe

Intro
|--------------------------------------------------------------|x2
|--------------------------------------------------------------|
|-------9-9-9-8-8-----------------------9-9-9-8-8--------------|
|-7-7-7-----------7-7-7-7-5-5-5-5-7-7-7-----------7-7-7-7-5/10-|
|--------------------------------------------------------------|
|--------------------------------------------------------------|

|--------------------------------------------------------------|x2
|--------------------------------------------------------------|
|--------------------------------------------------------------|
|-2-----2-----1-------------------2-----2-----1----------------|
|-0-0-0---0-0---0-0-0-0-0---------0-0-0---0-0---0-0-0-0-0------|
|-------------------------5-5-5-5-------------------------5/10-|

|--------------------------------------------------------------|x2
|--------------------------------------------------------------|
|--------------------------------------------------------------|
|-------2-2-2-1-1-----------------------2-2-2-1-1--------------|
|-0-0-0-----------0-0-0-0---------0-0-0-----------0-0-0-0------|
|-------------------------5-5-5-5-------------------------5/10-|

|----------------------------------------------------|x2
|----------------------------------------------------|
|--------4--3---------------------4--3---------------|
|-2-2--2-2--1--2-2--2------2-2--2-2--1--2-2--2-------|
|-0-0--0-------0-0--0-5-5--0-0--0-------0-0--0--5/10-|
|---------------------5-5-----------------------5/10-|

Verse
|--------------------------------------------------------------|x2
|--------------------------------------------------------------|
|--------------------------------------------------------------|
|---------2---1---------------------------2---1----------------|
|-0-0-0-0---0---0-0-0-0-0-5-5-5-5-0-0-0-0---0---0-0-0-0-0-5/10-|
|-------------------------5-5-5-5-------------------------5/10-|
  . . . . . . . . . . . . . . . . . . . . . . . . . . . .

|----------------------------------------------------|x2
|----------------------------------------------------|
|--------4--3---------------------4--3---------------|
|-2-2--2-2--1--2-2--2------2-2--2-2--1--2-2--2-------|
|-0-0--0-------0-0--0-5-5--0-0--0-------0-0--0--5/10-|
|---------------------5-5-----------------------5/10-|


|---------------------------------------------------------------------|
|---------------------------------------------------------------------|
|---------------------------------------------------------------------|
|-2----------------2----------------2----------------2----------------|
|-0----------------0----------------0----------------0----------------|
|---------------------------------------------------------------------|


|-5-5---4-4-4---3-3-3---2-2-2-|   |-5-5-5---4-4-4---3-3-3---2-2-2-|x2
|-6-6---5-5-5---4-4-4---3-3-3-|   |-6-6-6---5-5-5---4-4-4---3-3-3-|
|-7-7---6-6-6---5-5-5---4-4-4-|   |-7-7-7---6-6-6---5-5-5---4-4-4-|
|-7-7---6-6-6---5-5-5---4-4-4-|   |-7-7-7---6-6-6---5-5-5---4-4-4-|
|-----------------------------|   |-------------------------------|
|-----------------------------|   |-------------------------------|

|-5-5-5-x-4-x-4-x-3-x-3-x-2-2-2-|
|-6-6-6-x-5-x-5-x-4-x-4-x-3-3-3-|
|-7-7-7-x-6-x-6-x-5-x-5-x-4-4-4-|
|-7-7-7-x-6-x-6-x-5-x-5-x-4-4-4-|
|-------------------------------|
|-------------------------------|


|-5-5-5---4-4-4---3-3-3---2-2-2-|x2 |-5-5-5-x-4-x-4-x-3-x-3-x-2-2-2-|
|-6-6-6---5-5-5---4-4-4---3-3-3-|   |-6-6-6-x-5-x-5-x-4-x-4-x-3-3-3-|
|-7-7-7---6-6-6---5-5-5---4-4-4-|   |-7-7-7-x-6-x-6-x-5-x-5-x-4-4-4-|
|-7-7-7---6-6-6---5-5-5---4-4-4-|   |-7-7-7-x-6-x-6-x-5-x-5-x-4-4-4-|
|-------------------------------|   |-------------------------------|
|-------------------------------|   |-------------------------------|

|-5-5-5---4-4-4---3-3-3---2-2-2-|   |-5-5-5---4-4-4---3-3-3---2-1-2-|x2
|-6-6-6---5-5-5---4-4-4---3-3-3-|   |-6-6-6---5-5-5---4-4-4---3-2-3-|
|-7-7-7---6-6-6---5-5-5---4-4-4-|   |-7-7-7---6-6-6---5-5-5---4-3-4-|
|-7-7-7---6-6-6---5-5-5---4-4-4-|   |-7-7-7---6-6-6---5-5-5---4-3-4-|
|-------------------------------|   |-------------------------------|
|-------------------------------|   |-------------------------------|

|-5-5-5---4-4-4---3-3-3---2-2-2-|x2
|-6-6-6---5-5-5---4-4-4---3-3-3-|
|-7-7-7---6-6-6---5-5-5---4-4-4-|
|-7-7-7---6-6-6---5-5-5---4-4-4-|
|-------------------------------|
|-------------------------------|


|-------------------------|x4
|-------------------------|
|-------------------------|
|-------------------------|
|-7--7--6--6--5--5--4--4--|
|-7--7--6--6--5--5--4--4--|

|-------------------------|x4
|-------------------------|
|-------------------------|
|-------------------------|
|-7-7-7-6-6-6-5-5-5-4-4-4-|
|-7-7-7-6-6-6-5-5-5-4-4-4-|

|--------------------------------------------------------------------------|
|--------------------------------------------------------------------------|
|--------------------------------------------------------------------------|
|--------------------------------------------------------------------------|
|-7------------------------------------------------------------------------|
|-7------------------------------------------------------------------------|


|-5-5-x-5-x-5-x-5-x-5-x-5-5-5-x-5-5-5-x-5-x-5-x-5-|
|-6-6-x-6-x-6-x-6-x-6-x-6-6-6-x-6-6-6-x-6-x-6-x-6-|
|-7-7-x-7-x-7-x-7-x-7-x-7-7-7-x-7-7-7-x-7-x-7-x-7-|
|-7-7-x-7-x-7-x-7-x-7-x-7-7-7-x-7-7-7-x-7-x-7-x-7-|
|-------------------------------------------------|
|-------------------------------------------------|

|-5-5-x-5-x-5-x-5-x-5-x-5-x-5-x-5-5-5-x-5-x-5-x-5-|
|-6-6-x-6-x-6-x-6-x-6-x-6-x-6-x-6-6-6-x-6-x-6-x-6-|
|-7-7-x-7-x-7-x-7-x-7-x-7-x-7-x-7-7-7-x-7-x-7-x-7-|
|-7-7-x-7-x-7-x-7-x-7-x-7-x-7-x-7-7-7-x-7-x-7-x-7-|
|-------------------------------------------------|
|-------------------------------------------------|

|-5-5-x-5-5-5-x-5-5-5-x-5-x-5-x-5-5-5-x-5-x-5-x-5-|
|-6-6-x-6-6-6-x-6-6-6-x-6-x-6-x-6-6-6-x-6-x-6-x-6-|
|-7-7-x-7-7-7-x-7-7-7-x-7-x-7-x-7-7-7-x-7-x-7-x-7-|
|-7-7-x-7-7-7-x-7-7-7-x-7-x-7-x-7-7-7-x-7-x-7-x-7-|
|-------------------------------------------------|
|-------------------------------------------------|

|-5-5-x-5-5-5-x-5-x-5-x-5-x-5-x-5-5-5-x-5-x-5-x-5-|
|-6-6-x-6-6-6-x-6-x-6-x-6-x-6-x-6-6-6-x-6-x-6-x-6-|
|-7-7-x-7-7-7-x-7-x-7-x-7-x-7-x-7-7-7-x-7-x-7-x-7-|
|-7-7-x-7-7-7-x-7-x-7-x-7-x-7-x-7-7-7-x-7-x-7-x-7-|
|-------------------------------------------------|
|-------------------------------------------------|

|-5-5-x-5-x-5-x-5-x-5-x-5-x-5-x-5-5-5-x-5-x-5-x-5-|
|-6-6-x-6-x-6-x-6-x-6-x-6-x-6-x-6-6-6-x-6-x-6-x-6-|
|-7-7-x-7-x-7-x-7-x-7-x-7-x-7-x-7-7-7-x-7-x-7-x-7-|
|-7-7-x-7-x-7-x-7-x-7-x-7-x-7-x-7-7-7-x-7-x-7-x-7-|
|-------------------------------------------------|
|-------------------------------------------------|

|-5-5-x-5-5-5-x-5-5-5-x-5-x-5-x-5-5-5-x-5-x-5-x-5-|
|-6-6-x-6-6-6-x-6-6-6-x-6-x-6-x-6-6-6-x-6-x-6-x-6-|
|-7-7-x-7-7-7-x-7-7-7-x-7-x-7-x-7-7-7-x-7-x-7-x-7-|
|-7-7-x-7-7-7-x-7-7-7-x-7-x-7-x-7-7-7-x-7-x-7-x-7-|
|-------------------------------------------------|
|-------------------------------------------------|

|-5-5-x-4-4-4-x-3-3-3-x-2-2-2-x-5-5-5-x-4-4-4-x-3-3-3-x-2-2-2-|
|-6-6-x-5-5-5-x-4-4-4-x-3-3-3-x-6-6-6-x-5-5-5-x-4-4-4-x-3-3-3-|
|-7-7-x-6-6-6-x-5-5-5-x-4-4-4-x-7-7-7-x-6-6-6-x-5-5-5-x-4-4-4-|
|-7-7-x-6-6-6-x-5-5-5-x-4-4-4-x-7-7-7-x-6-6-6-x-5-5-5-x-4-4-4-|
|-------------------------------------------------------------|
|-------------------------------------------------------------|

|-5-5-x-4-4-4-x-3-x-3-x-2-2-2-x-5-5-5-x-4-4-4-x-3-3-3-x-2-2-2-|
|-6-6-x-5-5-5-x-4-x-4-x-3-3-3-x-6-6-6-x-5-5-5-x-4-4-4-x-3-3-3-|
|-7-7-x-6-6-6-x-5-x-5-x-4-4-4-x-7-7-7-x-6-6-6-x-5-5-5-x-4-4-4-|
|-7-7-x-6-6-6-x-5-x-5-x-4-4-4-x-7-7-7-x-6-6-6-x-5-5-5-x-4-4-4-|
|-------------------------------------------------------------|
|-------------------------------------------------------------|


|-------------------------|x4
|-------------------------|
|-------------------------|
|-------------------------|
|-7--7--6--6--5--5--4--4--|
|-7--7--6--6--5--5--4--4--|

|-------------------------|x4
|-------------------------|
|-------------------------|
|-------------------------|
|-7-7-7-6-6-6-5-5-5-4-4-4-|
|-7-7-7-6-6-6-5-5-5-4-4-4-|

Outro
|--------------------------------------------------------------------------|
|--------------------------------------------------------------------------|
|--------------------------------------------------------------------------|
|--------------------------------------------------------------------------|
|-7------------------------------------------------------------------------|
|-7------------------------------------------------------------------------|


.=Palm mute
/=Slide up
\=Slide down
Tap to rate this tab
 
# A B C D E F G H I J K L M N O P Q R S T U V W X Y Z