Song name
# A B C D E F G H I J K L M N O P Q R S T U V W X Y Z

8 Stops 7 - Question Everything tab

8 STOP 7:
QUESTION EVERYTHING GUITAR TABS:

(ACOUSTIC INTRO)

(VERSE)
E---------------------------------------------------------|
B---------------------------------------------------------|
G-55-5-5--------------------------------------------------|
D-55-5-5---33-3-3--77-7-7---55-5-5------------------------|
A-33-3-3---33-3-3--77-7-7---55-5-5------------------------|
E-------------11-1-1--55-5-5---33-3-3---------------------|

E---------------------------------------------------------|
B---------------------------------------------------------|
G-55-5-5--------------------------------------------------|
D-55-5-5---33-3-3--77-7-7---55-5-5-3-3-3-3-3--------------|
A-33-3-3---33-3-3--77-7-7---55-5-5-3-3-3-3-3--------------|
E-------------11-1-1--55-5-5---33-3-3-1-1-1-1-1-----------|

(CHORUS)
E----------------------------------------------------------------------------|
B----------------------------------------------------------------------------|
G-55-5-5----------------55-5-5--------------55-5-5---------------------------|
D-55-5-5---33-3-3----55-5-5--33-3-3---55-5-5--77-7-7--3----------------------|
A-33-3-3---33-3-3----33-3-3--33-3-3---33-3-3--77-7-7--3----------------------|
E-------------11-1-1----------------11-1-1-------------55-5-5---1------------|

(BREAKDOWN)
E------------------------------------------------------------------------------------|
B---1-----1----1----1---1---1----1---1---1---1---1-------1--1---1---1----------------|
G-2---2-----2----2------------------------2---2---2---2------------------------------|
D-----------------------3---3---3----3---------------------3---3---3---3-------------|
A------------------------------------------------------------------------------------|
E------------------------------------------------------------------------------------|

E----------------------------------------------------------------|
B----------------------------------------------------------------|
G----------------------------------------------------------------|
D--77-7-7-77-7-7--33-3-3-33-3-3--77-7-7-77-7-7-------------------|
A--77-7-7-77-7-7--33-3-3-33-3-3--77-7-7-77-7-7-------------------|
E--55-5-5-55-5-5--11-1-1-11-1-1--55-5-5-55-5-5-------------------|

E----------------|
B----------------|
G----------------|
D--33-3-3--5~----|
A--33-3-3--5~----|
E--11-1-1--3~----|

(SOLO)
E----------------------------------------------------------------------------|
B----------------------------------------------------------------------------|
G--5-7-7/9-555-7-8/10-121212-1010-99-77-55-3 /4-5-5/7------------------------|
D----------------------------------------------------------------------------|
A----------------------------------------------------------------------------|
E----------------------------------------------------------------------------|

(ENDING)
E------------------------------------|
B------------------------------------|
G-55-5-5-----------------------------|
D-55-5-5---77-7-7---3---3---3~-------|
A-33-3-3---77-7-7---3---3---3~-------|
E-------------55-5-5---1---1---1~----|

SONG STRUCTURE:
1.ACOUSTIC INTRO          5.CHORUS                    9.SOLO
2.VERSE X4                           6.BREAKDOWN     10.ENDING
3.CHORUS                              7.VERSE X2
4.VERSE X4                           8.CHORUS
Tap to rate this tab
 
# A B C D E F G H I J K L M N O P Q R S T U V W X Y Z