Song name
# A B C D E F G H I J K L M N O P Q R S T U V W X Y Z

8 Stops 7 - Wider tab

8Stops7 - Wider
From - 'In Moderation'
Tabbed by Aaron Brook - chooka37@hotmail.com

DADGBE

Okay, this is basically it, there's a few fills 'n' things in the song. Some parts are played an octave higher but it's all easy enough for you to figure out.

Intro/Verse

|------------------------| 
|------------------------| 
|------------------------|
|------------------------|
|-0-0-5p3-0-------3-5----|
|-0-0-------3-4-5--------|

Chorus - Hold these for a while

|--------------|
|--------------|
|--------------|
|-0---9---8----|
|-0---9---8----|
|-0---9---8----|

Bridge

|------------------------------|
|------------------------------|
|------------------------------|
|--4-0-----5-------------------|
|------4-3---3-2-1-------------|
|------------------5-4-3-0-----|


As usual, no comments 'cos I don't care

Chooka
Tap to rate this tab
# A B C D E F G H I J K L M N O P Q R S T U V W X Y Z