Song name
# A B C D E F G H I J K L M N O P Q R S T U V W X Y Z

8 Stops 7 - Regression tab

8Stops7 - Regression
From - 'In Moderation'
Tabbed by Aaron Brook - chooka37@hotmail.com

This songs full of little fiddly riffs and bits of crap so I'll just write all of them out let you figure out which part goes in order.

DADGBE

Intro/Verse

|----------------------------------|---------------------------|
|----------------------------------|--6666-6666-6666-5555------|
|----------------------------------|--5555-5555-5555-5555--x-4-|
|-3-3--3-3--3-3--3-3-------x-heaps-|---------------------------|
|-5-5--5-5--5-5--5-5-4-0-----------|---------------------------|
|------------------------3---------|---------------------------|
 < -------PM------ >


|---------------------------------|----------------------------------------|
|---------------------------------|------3---3-----------------------------|
|--8-7-7--8-7-7--8-7-7--8-7-7-----|------2---2-----------------------------|
|--0-0-0--0-0-0--0-0-0--0-0-0-6-7-|----------------------------------------| x2
|-----------------------------6-7-|-0000---0---000-0000-x-3-66666666-7-----|
|-----------------------------6-7-|-0000---0---000-0000-----66666666-7-----|
					  < ------PM-------- >

'I would be faking, I didn't know..'
|-------------------------------------------------------------|
|-------------------------------------------------------------|
|-------------------------------------------------------------|
|-5--------------------0------6-7----0------6-7---------------|
|-5-hold-for-a-while---0------6-7----0------6-7---------------|
|-5--------------------0------6-7----0------6-7---------------|

'These idle hands..'
|-----------------------------------------|
|-----------------------------------------|
|-----------------------------------------|
|-5---------------3------1-----0-0-1------|
|-5---------------3------1-----0-0-1------|
|-5---------------3------1-----0-0-1------|

Silence, then

|-------------------------------------------------------------------|
|-6666-6666-6666-5555-----------------------------------------------|
|-5555-5555-5555-5555-repeat-heaps----------------------------------|
|-----------------------------------------3-3--3-3--3-3--3-3--------|
|----------------------------------4-0----5-5--5-5--5-5--5-5--4-0---|
|--------------------------------------3--------------------------3-|

|--------------------------------------------|
|--------------------------------------------|
|--8-7-7--8-7-7--8-7-7--8-7-7----------------|
|--0-0-0--0-0-0--0-0-0--0-0-0--6-7---x-4-----|
|------------------------------6-7-----------|
|------------------------------6-7-----------|

Any comments? I don't care so don't bother telling me.

Chooka
Tap to rate this tab
# A B C D E F G H I J K L M N O P Q R S T U V W X Y Z