Song name
# A B C D E F G H I J K L M N O P Q R S T U V W X Y Z

88 Fingers Louie - Tomorrow Starts Today tab

88 Fingers Louie - Tomorrow Starts Today

Intro and Verse

e----------------------------------------------------
B----------------------------------------------------
G----------------------------------------------------
D-9-9-9-9---5-5-5-5---9-9-9-9---5-5-5-5--------------
A-9-9-9-9---5-5-5-5---9-9-9-9---5-5-5-5--------------
E-7-7-7-7---3-3-3-3---7-7-7-7---3-3-3-3--------------

e----------------------------------------------------
B----------------------------------------------------
G----------------------------------------------------
D--9-9-9-9-9-9-9-9--5-5-5-5-5-5-5-5------------------
A--9-9-9-9-9-9-9-9--5-5-5-5-5-5-5-5------------------
E--7-7-7-7-7-7-7-7--3-3-3-3-3-3-3-3------------------

e----------------------------------------------------
B----------------------------------------------------
G----------------------------------------------------
D-14-14-14-14-14-14-14-14--11-11-11-11-11-11-11-11---
A--x--x--x--x--x--x--x--x---x--x--x--x--x--x--x--x---
E-12-12-12-12-12-12-12-12---9--9--9--9--9--9--9--9---

Still Working on the Chorus...How does this part sound?
Tap to rate this tab
# A B C D E F G H I J K L M N O P Q R S T U V W X Y Z