Song name
# A B C D E F G H I J K L M N O P Q R S T U V W X Y Z

88 Fingers Louie - Drunk Ugly tab

Artist: 88 Fingers Louie
Song:	Drunk & Ugly
Album:	Back On The Streets
Tuning: Standart

Intro 2x
m= mute (? use fast up and down muting)

E--------------------------------|
B-------?-----------?------------|
G---mmmm---mmm--mmmm---mmm-------|
D--66666-6-346-66666-6-346-------|
A--66666-6-346-66666-6-346-------|
E--44444-4-124-44444-4-124-------|


Verse 2x

* play 6 times
+ play 3 times


E-------------------------------->
B-------?-----------?------------>
G---mmmm---mmm--mmmm---mmm------->
D--66666-6-666-66666-6-666------->
A--66666-6-666-66666-6-666------->
E--44444-4-444-44444-4-444-------> 


E--------------------------------|
B-------?--------*---------------|
G---mmmm---mmm--6---*--*--*------|
D--66666-6-666--6--6--5--6-------|
A--66666-6-666--4--8--6--4-------|
E--44444-4-444-------------------|



Chorus  2x


E--------------------------------|
B------*-----*-----*------+-+--+-|
G---*-6---*-6---*-6---*-10-8--6--|
D--6--6--6--6--6--6--6--10-8--6--|
A--6--4--6--4--6--4--6--8--6--4--|
E--4-----4-----4-----4-----------|


Bridge  4x

E--------------------------------|
B------*---+-+--+----------------|
G---*-8--10-8--6-----------------|
D--6--8--10-8--6-----------------|
A--6--6--8--6--4-----------------|
E--4-----------------------------|


Thats all about it. There're a few different mutings
and strummings throughout the song but it shouldn't
be too hard to figure that out (as well as the order).
Tabbed by Juicehead. 
Tap to rate this tab
 
# A B C D E F G H I J K L M N O P Q R S T U V W X Y Z