Guitaretab - guitar tabs
Song name
# A B C D E F G H I J K L M N O P Q R S T U V W X Y Z
Home / Numeric / 8mm / Liar tab

8mm - Liar tab

----------------------------------------------------------------------
			     Liar – 8mm.
----------------------------------------------------------------------

Tabbed by Geoff Brin
Email: salamander37@hotmail.com

e---------------------------------------------------------|
b---------------------------------------------------------|
g--------0-------0--------------0------0------------------|
d------4-------4-------4------4—-----4-------4------------|
a----5-------5-------5------3------3-------3--------------|
E---------------------------------------------------------|
[ Tab from: http://www.guitaretab.com/numeric/8mm/151904.html ]
e---------------------------------------------------------|
b---------------------------------------------------------|
g--------0------0-----------0------0----------------------|
d------4------4—----4-----4---—--4----4/7/5---------------|
a----7------7-----7-----5------5--------------------------|
E---------------------------------------------------------|

e---------------------------------------------------------|
b---------------------------------------------------------|
g--------0-------0--------------0------0------------------|
d------4-------4-------4------4—-----4-------4------------|
a----5-------5-------5------3------3-------3--------------|
E---------------------------------------------------------|

e---------------------------------------------------------||
b---------------------------------------------------------||
g--------0------0-----------0-----------------------------||
d------4------4—----4-----4---4---------------------------||
a----7------7-----7-----5-------5-------------------------||
E---------------------------------------------------------||

I think that’s pretty much it, enjoy!


www.8mmaudio.com