Song name
# A B C D E F G H I J K L M N O P Q R S T U V W X Y Z

911 - Gothic Twilight tab

Help us improve GuitareTab! Take a short survey!
e/--0----0----0---------0----0----0-------/
B/---0----0----0---------0----0----0------/
G/----------------------------------------/repeat twice
D/----------------------------------------/
A/----------------------------------------/
E/-0--0-5--5-7--7-2h3--0--0-5--5-7--7-2h3-/

e/--0----0----0---------0----0----0-------/
B/---0----0----0---------0----0----0------/
G/----------------------------------------/
D/----------------------------------------/
A/----------------------------------------/
E/-0--0-5--5-9--9-6h7--0--0-5--5-9--9-6h7-/

e/--0----0----0----------------------/
B/---0----0----0---------------------/
G/-----------------------------------/
D/-----------------------------------/
A/-----------------------------------/
E/-0--0-5--5-9--9-6h7----0--0-3-3h2-0/
Related for Gothic Twilight tab