Song name
# A B C D E F G H I J K L M N O P Q R S T U V W X Y Z

999 - Feelin Alright With The Crew tab

Feelin' Alright With the Crew by 999
(standard tuning)

guitar 1
|----------------|-------1------|
|-------------1--|---------1----|
|-0---------2----|-----------2--|
|-------3--------|----3---------|
|----------------|--------------|
|----1-----------|-3------------|
it pretty much just alternates between 
those 2 parts throughout the song.


guitar 2
|-3-3-3-3-|
|-3-3-3-3-|
|---------|
|---------|
|---------|
|---------|
and guitar 2 does that for almost the whole song.


|-----------------------------|------------------|
|-----------------------------|------------------|
|-------0------------0--------|------------------|
|-----3------------3----------|------------5-6-7-|
|---1-------0----1-------7--7-|----4-5-6-7-------|
|-3------------3---------5--5-|--5---------------|


|-------------1------|
|----------------1---|
|------------------2-|
|--------------------|
|--------3-----------|
|-3b(5)~-------------|
the next part is basically that over and over 
but jazzed up a little different every time.


|----------------|-------1------|
|-------------1--|---------1----|
|-0---------2----|-----------2--|
|-------3--------|----3---------|
|----------------|--------------|
|----1-----------|-3------------|
and then that goes to the end.

Tap to rate this tab
 
# A B C D E F G H I J K L M N O P Q R S T U V W X Y Z