Guitaretab - guitar tabs
Song name
# A B C D E F G H I J K L M N O P Q R S T U V W X Y Z

O Rappa - Homem Amarelo chords

Highlighted       Show chord diagrams
Int: Bb C# D#


Bb                  C#     D#
O Homem Amarelo do Samba do Morro
Bb                  C#     D#
O Hip Hop do Santa Marta
Bb                  C#     D#
Agarrando o louro na descida da ladeira
Bb                  C#     D#
Malandro da baixada em terra estrangeira


Bb                  C#     D#
A salsa cubana do negro oriental
Bb                  C#     D#
Ja  ouvida na central
Bb                 
Que pega o buzum
C#     D#
Que fala outra lingua
Bb                  C#     D#
Reencontra suburbios e esquinas

[ Tab from: http://www.guitaretab.com/o/o-rappa/219319.html ]
Bb                  C#     D#
 o comando em mesa de vidro
Bb                  C#     D#
Que nao enumera o bandido


Bb             
Eu e minha tribo
C#     D#
Brincando nos terreiros
Bb                
Eu e minha tribo
C#     D#
Nos terreiros do mundo


Bb                  C#     D#
So misturando pra ver no que vai dar

Solo:

e|------------------------|
B|-26-26-26-27-26----26---|
G|----------------38------|
D|------------------------|
A|------------------------|
E|------------------------|

e|----------------------------|
B|-26-26-26-27-26----26-------|
G|----------------38----------|
D|----------------------48-48-|
A|----------------------------|
E|----------------------------|
Related for Homem Amarelo chords