Song name
# A B C D E F G H I J K L M N O P Q R S T U V W X Y Z

O-town - Love Should Be A Crime tab

O-Town
"Love Should Be A Crime"

Hey, this is my first official tab! Woo-hoo! This song is pretty good,
considering that it's by a boy band, but let's just overlook that.
This is just the acoustic guitar portion, I haven't figured the
electric guitar part...yet. It's really easy and fun to play. Enjoy!

Intro, Chorus, Verse (Strumming pattern not shown)

E--0--0--0--0--|
B--3--3--3--3--|
G--2--1--0--2--|
D--0--0--0--0--|
A--------------|
E--------------|

And it ends with this...

E----0--------0--------0------2--|
B------3--------3--------3----3--|
G--2-----2--1-----1--0-----0--2--|
D--------------------------------|
A--------------------------------|
E--------------------------------|

Too Easy!

What up Wendy!
Tap to rate this tab
# A B C D E F G H I J K L M N O P Q R S T U V W X Y Z