Song name
# A B C D E F G H I J K L M N O P Q R S T U V W X Y Z

O-town - Craving tab

CRAVING
Artist: O-Town
Album: 02
Tabbed by FADEDMEMORY

Hey, I've only got the intro right now, but I'm workin' on the rest of the song!
I should post it up soon! This is an awesome song, so ENJOY! 8-) 

E|---------------------------------------------|
B|-------------------------3-------------------|
G|-------0--------0------0---0-----------------|
D|-----0--------0------0-----------------------|
A|---2--------0------3-------------------------|
E|-0--------2----------------------------------|

E|---------------------------------------------|
B|-------------------------3-------------------|
G|-------0--------0------0---0-----------------|
D|-----0--------0------0-----------------------|
A|---2--------0------3-------------------------|
E|-0--------2----------------------------------|

I'll get the rest up later!
~*~Alyssa~*~
Tap to rate this tab
 
# A B C D E F G H I J K L M N O P Q R S T U V W X Y Z