Song name
# A B C D E F G H I J K L M N O P Q R S T U V W X Y Z

O-zone - Dragostein Din Tei tab

Tuning:Standard

e|-----------------------------12-10-----------------------------------------|
B|13-12-13-10-10-12-10------13-------12-------15-13-12-13-12-----------------|
G|---------------------12-9-------------12-12----------------14--------------|
D|---------------------------------------------------------------------------|
A|---------------------------------------------------------------------------|
E|---------------------------------------------------------------------------|

e|-----------------------------12-10-----10------------------------------------|
B|13-12-13-10-10-12-10------13-------12-----12-13-12-10------------------------|
G|---------------------12-9----------------------------------------------------|
D|-----------------------------------------------------------------------------|
A|-----------------------------------------------------------------------------|
E|-----------------------------------------------------------------------------|

repeat 2 times
Tap to rate this tab
 
# A B C D E F G H I J K L M N O P Q R S T U V W X Y Z