Song name
# A B C D E F G H I J K L M N O P Q R S T U V W X Y Z

Oag - Beautiful tab

Intro

----------------------------------------------------------------------------|
----------------------------------------------------------------------------|
-7-7---5-7-5-7---7-7--10--12------------------------------------------------|
-7-7---5-7-5-7---7-7--10--12------------------------------------------------|
-5-5---3-5-3-5---5-5--8---10------------------------------------------------|
----------------------------------------------------------------------------|

Verse
----------------------------------------------------------------------------|
----------------------------------------------------------------------------|
-7-7------------------------------------------------------------------------|
-7-7----------------------------9-9-----------------------------------------|
-5-5----------------------------9-9-----------------------------------------|
--------------------------------7-7-----------------------------------------|


-----------------------------------------------------------------------------------|
-----------------------------------------------------------------------------------|
-5-5---------------------------------------------------------------- repeat intro--| x2
-5-5-------------------------------------------------------------------------------|
-3-3-------------------------------------------------------------------------------|
-----------------------------------------------------------------------------------|

Chorus

beautiful,beautiful,beautiful,beautiful,uuu...
----------------------------------------------------------------------------|
----------------------------------------------------------------------------|
-7-7------------------------------------------------------------------------|
-7-7----------------------------9-9-----------------------------------------|
-5-5----------------------------9-9-----------------------------------------|
--------------------------------7-7-----------------------------------------|

tonight,go out like that and make a fool of yourself
-----------------------------------------------------------------------------------|
-----------------------------------------------------------------------------------|
-5-5---------------------------------------------------------------- repeat intro--| x2
-5-5-------------------------------------------------------------------------------|
-3-3-------------------------------------------------------------------------------|
-----------------------------------------------------------------------------------|

by : Ajim Bulukorek
Tap to rate this tab
# A B C D E F G H I J K L M N O P Q R S T U V W X Y Z