Song name
# A B C D E F G H I J K L M N O P Q R S T U V W X Y Z

Oag - Wired tab

Intro
e------------
B-0--1-3-1-0-
G------------
D------------
A------------
E------------

Verse
  C  Am  Em  G

Before Chorus
e------------
B-0--1-3-1-0-
G------------
D------------
A------------
E------------

Chorus
  C  Am  Em  G

Chorus Fill-in
e------------
B-0--1-3-1-0-
G------------
D------------
A------------
E------------

Outro
  C  Am  Em  G

Outro Fill-in
e-----------------------3--0-------
B-0--1-3-1-0--------1--------------
G-----------------0-----------*(0)-
D---------------2-------------*(2)-
A-------------3---------------*(3)-
E----------------------------------
                                
*play it palm muted.
Tap to rate this tab
 
# A B C D E F G H I J K L M N O P Q R S T U V W X Y Z