Song name
# A B C D E F G H I J K L M N O P Q R S T U V W X Y Z

Oag - Beautifool tab

-------------------------------------------------------------------------------
			     BEAUTIFOOL - OAG
----------------------------------------------------------------------------
Tabbed by:johnny teo *chee huat* ----------{plastic TOXIC}
Email:teo_huat@yahoo.com

Tuning:standar tuning(e,a,d,g,b,e)

intro-
e|-------------------------------------------------------------------------|
B|------------------x3-----------------------------------------------------]
G|9-9-9----7-9-7-9-------9-13-13-13-13-13----------------------------------|
D|-------------------------------------------------------------------------|
A|7-7-7----5-7-5-7-------7-11-11-11-11-11----------------------------------|
E|-------------------------------------------------------------------------|

verse
     E    D#    D 
e|-------------------------------------------------------------------------|
B|-------------------------------------------------------------------------|
G|-------------------------------------------------------------------------|
D|---9----6-----7----------------------------------------------------------|
A|---7----4-----5----------------------------------------------------------|
E|-------------------------------------------------------------------------|

CHORUS

     E    D#   D       
e|-------------------------------------------------------------------------|
B|-----------------DO A COUPLE TIME AND THEN PLAY>>------------------------|
G|---------------------------------------------------9-12-12-12-12-12------|
D|---9----6----7-----------------------------------------------------------|
A|---7----4----5-------------------------------------7-10-10-10-10-10------|
E|-------------------------------------------------------------------------|

 THIS IS SOME RYTHM ON LAST OF THE SONG PLAY BY 2ND GUITAR

e|------12------DO AS MANY TIME AS NECCESARY-------------------------------|
B|--12---------------------------------------------------------------------|
G|9------------------------------------------------------------------------|
D|-------------------------------------------------------------------------|
A|-------------------------------------------------------------------------|
E|-------------------------------------------------------------------------|

that the most of it......enjoy yourself... support for plastic toxic yeah eah!!!!!!
Tap to rate this tab
# A B C D E F G H I J K L M N O P Q R S T U V W X Y Z