Song name
# A B C D E F G H I J K L M N O P Q R S T U V W X Y Z

Oar - What Is Mine tab

Song: What Is Mine
Band: O.A.R.
Album: P.N.C. (Disc 1)
Tabbed by: O-52-A-50-R

*Amazing song by an amazing band. Nothing left to say except no one has tabbed it yet.

Intro
Guitar 1- Lead - Richard On

|--------------------|
|--------------------|
|--------------------|
|--4-2-----2---------| (1x)
|4-----4-2---4-2-----|
|----------------4/5-|

|---------------------------------------------|
|---------------------------------------------|
|-----------------1---------------------------| 
|----7-6--------2---2-4-------2---------------|
|0-7-----4----4-------------4---4-2-4-2-0-----|
|-----------------------------------------4/5-|

(2x)


Guitar 2- Rhythm - Marc Roberge

|---5-5---4-4---2-2---7-7---|
|---5-5---5-5---2-2---9-9---|
|---6-6---6-6---2-2---9-9---|
|---7-7---6-6---4-4---9-9---|
|---7-7---4-4---4-4---7-7---|
|---5-5---4-4---2-2---7-7---|

Verse

Guitar 2 - Rhythm - Marc Roberge

|---5---4---2---7---|
|---5---5---2---9---|
|---6---6---2---9---|
|---7---6---4---9---|
|---7---4---4---7---|
|---5---4---2---7---|
Pre-Chorus

Guitar 2 (I think)- Lead (Rhythm in this case)- Richard On

|-xx-2-2-xx-2-2-xx-5-5-xx-5-5-xx-5-5-xx-5-5-xx-5-5-xx-5-5-|
|-xx-2-2-xx-2-2-xx-5-5-xx-5-5-xx-7-7-xx-7-7-xx-5-5-xx-5-5-|
|-xx-2-2-xx-2-2-xx-6-6-xx-6-6-xx-7-7-xx-7-7-xx-6-6-xx-6-6-|
|-xx-4-4-xx-4-4-xx-7-7-xx-7-7-xx-7-7-xx-7-7-xx-7-7-xx-7-7-|
|-xx-4-4-xx-4-4-xx-7-7-xx-7-7-xx-5-5-xx-5-5-xx-7-7-xx-7-7-|
|-xx-2-2-xx-2-2-xx-5-5-xx-5-5-xx-5-5-xx-5-5-xx-5-5-xx-5-5-|


(2x)^^^

|-xx-2-2-xx-2-2-xx-5-5-xx-5-5-xx-5-5-xx-5-5-xx-7-7-xx-7-7|
|-xx-2-2-xx-2-2-xx-5-5-xx-5-5-xx-7-7-xx-7-7-xx-9-9-xx-9-9|
|-xx-2-2-xx-2-2-xx-6-6-xx-6-6-xx-7-7-xx-7-7-xx-9-9-xx-9-9|
|-xx-4-4-xx-4-4-xx-7-7-xx-7-7-xx-7-7-xx-7-7-xx-9-9-xx-9-9|
|-xx-4-4-xx-4-4-xx-7-7-xx-7-7-xx-5-5-xx-5-5-xx-7-7-xx-7-7|
|-xx-2-2-xx-2-2-xx-5-5-xx-5-5-xx-5-5-xx-5-5-xx-7-7-xx-7-7|

Chorus

Guitar… (yeah I dunno)

|2---5---4---7---5---5---7---|
|2---5---5---7---5---7---9---|
|2---6---6---7---6---7---9---|
|4---7---6---9---7---7---9---|
|4---7---4---9---7---5---7---|
|2---5---4---7---5---5---7---|

---------^

Those three are for “On my way back home”



Bridge 

|------------------------|
|------------------------|
|------------------------| (4x)
|------------------------|
|------------------------|
|2-2-2-2-2-0-2-2-2-2-2-0-|

|------------------------|
|------------------------|
|------------------------| (4x)
|------------------------|
|2-2-2-2-2-0-2-2-2-2-2-0-|
|------------------------| 


|------------------------|
|------------------------|
|------------------------| (4x)
|------------------------|
|------------------------|
|2-2-2-2-2-0-2-2-2-2-2-0-|

Outro


|---------------------------------------------|
|---------------------------------------------|
|-----------------1---------------------------| 
|----7-6--------2---2-4-------2---------------|
|0-7-----4----4-------------4---4-2-4-2-0-----|
|-----------------------------------------4/5-|

^^^(4x)



Tablature Legend

/ or \ = slide 

x = palm mute
Tap to rate this tab
 
# A B C D E F G H I J K L M N O P Q R S T U V W X Y Z