Song name
# A B C D E F G H I J K L M N O P Q R S T U V W X Y Z

Oar - About An Hour Ago tab

Help us improve GuitareTab! Take a short survey!
Yea this is the solo for around the middle of the song. . .not too hard.  I'm pretty
this is right but suggestions or corrections are always appreciated - jar_head@fuse.net

Standard Tuning - Timing's Not Perfect - Listen to The Song

For beginners out there it's easiest to learn it bit by bit so just try it broken up
it is now until you have each piece down.  Then it's much easier to string together.

e|-3p0------------------------------------------------|
B|------3p0-----------------------------------------0-|
G|-----------2p0------0--2-0---2--2--2--0--2--0--2--0-|
D|-----------------2-----------2--2--2--0--2--0--2----|
A|----------------------------------------------------|
E|----------------------------------------------------|


e|-12---12---12---xx--12--12---xxx---15--15---xxx--15h17---15-17-|
B|-12---12---12---xx--12--12---xxx---15--15---xxx--15h17---15-17-|
G|-12---12---12---xx--12--12---xxx---12--12---xxx----------------|
D|---------------------------------------------------------------|
A|---------------------------------------------------------------|
E|---------------------------------------------------------------|


e|-17-15--------------------------------------------------------------------|
B|---------17-15--------------------------------------------12------12------|
G|----------------14-12--14-12-----------12-----------------12------12------|
D|-------------------------------14--12h14-----14p12--14-14-----14------14--|
A|--------------------------------------------------------------------------|
e|--------------------------------------------------------------------------|


e|---------------------------------------------------------------------------|
B|------------------------------------------------12h13-12-13-12h13-12-13-12-|
G|---------------------12-14-14b-12----12-12-14-12---------------------------|
D|---------12-14-12h14--------------14---------------------------------------|
A|12h13h14-------------------------------------------------------------------|
e|---------------------------------------------------------------------------|


e|------------------------15-14-12---12------------------------------|
B|--------------------------------------15-13-12-12-12h13-12---------|
G|-14-12h14-12------------------------------------------------14-12--|
D|--------------14-12------------------------------------------------|
A|-------------------------------------------------------------------|
e|-------------------------------------------------------------------|


e|-------------------------------------------------------------------|
B|-------------------------------------------------------------------|
G|-14-14b--12-----------12--14-12-14-14b---12-14b--------------------|
D|------------14-12h14-----------------------------------------------|
A|-------------------------------------------------------------------|
E|-------------------------------------------------------------------|

Good Luck I'm Pretty Sure This is Almost Totally Correct
Related for About An Hour Ago tab