Song name
# A B C D E F G H I J K L M N O P Q R S T U V W X Y Z

Oar - 3 Am tab

 E -15-17-------------------------------------------------------------------|
 B 12-----17-14h15p14-12---12----------------------12-b13-b1314-15-15-15----|
 G ---------------------14----14-11-14--11-11-14-14-------------------------|
 D -------------------------------------------------------------------------|
 A -------------------------------------------------------------------------|
 E -------------------------------------------------------------------------|

 E -1716171616 14-12-----12-----------------------------|
 B -------------------15----15--14-15-14----------------|
 G -------------------------------------16-14-16-14--14-|
 D ------------------------------------------------16---|
 A -----------------------------------------------------|
 E -----------------------------------------------------|

 E ----------------------------------|
 B ----------------------------------|
 G ----------14-16-b16-b16-14--------|
 D 14-14-h16-----------------1616-14-|
 A ----------------------------------|
 E ----------------------------------|

 E -------------------------------|
 B -----------------------14--17--|
 G ------------------14-16--------|
 D ---------14-14-16--------------|
 A 14-16-16-----------------------|
 E -------------------------------|
This is my very best effort, ive gone over it like 69 times.
Im pretty sure its right.
comments questions concerns/i screwed something up, email me
knightofni49@hotmail.com
Tap to rate this tab
# A B C D E F G H I J K L M N O P Q R S T U V W X Y Z