Song name
# A B C D E F G H I J K L M N O P Q R S T U V W X Y Z

Oar - Missing Pieces tab

-------------------------------------------------------------------------------
			     SONG NAME - Missing Pieces
-------------------------------------------------------------------------------
Tabbed by:
Email:
Note: Basically the song repeats this same pattern. Listen to the song to get the strum pattern
        and where exactly to mute the strings. 
Tuning:standard

e|--10-10--x--10-10---x---3--3-x--3--3--x---------------------------------------------|
B|--10-10--x--10-10---x---3--3-x--3--3--x---------------------------------------------|
G|--11-11--x--11-11---x---4--4-x--4--4--x---------------------------------------------|
D|--12-12--x--12-12---x---5--5-x--5--5--x---------------------------------------------|
A|--12-12--x--12-12---x---5--5-x--5--5--x---------------------------------------------|
E|--10-10--x--10-10---x---3--3-x--3--3--x---------------------------------------------|


===============================================================================
Tap to rate this tab
# A B C D E F G H I J K L M N O P Q R S T U V W X Y Z