Song name
# A B C D E F G H I J K L M N O P Q R S T U V W X Y Z

Oar - Mr Moon tab

Help us improve GuitareTab! Take a short survey!
--------------------
OAR
Mr.Moon
--------------------


Intro/Verse

e-----------|
b---1---1---|
g---0---0---|
d---3---2---|
a---3---3---|
E-----------|


Chorus

e-------3---1---|
b---1---3---1---|
g---2-------2---|
d---2-------3---|
a-------2---3---|
E-------3---1---|


Bridge

e-------------------|
b---1---3---1---1---|
g---0---2---0---0---|
d---2-------3---2---|
a---3-------3---3---|
E-------2-----------|

------------------------
Questions/Comments:
joshpwc@yahoo.com
OARSA.ORG
------------------------
Related for Mr Moon tab