Song name
# A B C D E F G H I J K L M N O P Q R S T U V W X Y Z

Oar - One Day tab

Marcs part

Verse/Chorus

e----3-----3------3-----3---|
b----3-----3------3-----3---|
g----------2------------2---|
d-----------------2---------|
a----2------------2---------|
E----3-----2------------2---|


Bridge

All these lonely days.......


e--3-----3-----(3)-----2(3)-|
b--3-----3-----(3)-----3----|
g----------------------2----|
d--2------------2-----------|
a--3-----2------2-----------|
E--------3------------------|
Tap to rate this tab
 
# A B C D E F G H I J K L M N O P Q R S T U V W X Y Z