Guitaretab - guitar tabs
Song name
# A B C D E F G H I J K L M N O P Q R S T U V W X Y Z
Home / O / Oar / Black Rock tab

Oar - Black Rock tab

-------------------------------------------------------------------------------
			     BLACK ROCK  O.A.R.
-------------------------------------------------------------------------------
Tabbed by: Jeff S
Email: shue_22@yahoo.com

Tuning: Standard

{Intro} repeat about 7 times
e|--12-10-10-x---7-5-5-x----10--9-7----5-3-3/10------------------------------|
B|--10-10-10-x---5-5-5-x--7------------3-3-3/10------------------------------|
G|--11-11-11-x---6-6-6-x------7--------4-4-4/10------------------------------|
D|-0-------------------------------------------------------------------------|
A|-------------0-------------------------------------------------------------|
E|------------------------7---------3----------------------------------------|

{Transition before chords}
e|---------------------------------------------------------------------------|
B|---------------------------------------------------------------------------|
G|---------------------------------------------------------------------------|
D|5-5-5-5--------------------------------------------------------------------|
A|5-5-5-5--------------------------------------------------------------------|
E|3-3-3-3--------------------------------------------------------------------|
[ Tab from: http://www.guitaretab.com/o/oar/30384.html ]
{Chord progression}
e|-7-7-------7-7---10-10-------10-10---3-3-------3-3---3-3-------3-3---------|
B|-7-7-------7-7---10-10-------10-10---3-3-------3-3---3-3-------3-3---------|
G|-7-7-------7-7---10-10-------10-10---3-3-------3-3---3-3-------3-3---------|
D|-9-9-x-x-x-9-9-x-12-12-x-x-x-12-12-x-5-5-x-x-x-5-5-x-5-5-x-x-x-5-5---------|
A|-9-9-x-x-x-9-9-x-12-12-x-x-x-12-12-x-5-5-x-x-x-5-5-x-5-5-x-x-x-5-5---------|
E|-7-7-x-x-x-7-7-x-10-10-x-x-x-10-10-x-3-3-x-x-x-3-3-x-3-3-x-x-x-3-3---------|
                              {Back to intro}
{Solo}
e|----------------------------------10-10-9-7--------------------------------|
B|-------------------------9-9h10p9-----------10-8-7-7h8p7-------------------|
G|----------7-9-7-9~-7---7---------------------------------9-7-----7-9-7-9~-7|
D|------7-9------------9---------------------------------------7h9-----------|
A|7-8-9----------------------------------------------------------------------|
E|---------------------------------------------------------------------------|

e|----------------------------------------------------------------------7-9-9|
B|---------------------7-7-8-8-8-8-8/10\8-7h8p7------------------7-8-10------|
G|------7-9-7-9~-7-7-7---------------------------------6-7-7/9-9-------------|
D|9-7h9-----------------------------------------9-9/11-----------------------|
A|---------------------------------------------------------------------------|
E|---------------------------------------------------------------------------|

e|9-9-9-10-9-7-9--9-9h10p9-7h9p7-5h7p5------------------------------0-2-3-2-2|
B|-------------------------------------8h10p8-7h8p7-5h7p5-3h5p3-2-3----------|
G|---------------------------------------------------------------------------|
D|---------------------------------------------------------------------------|
A|---------------------------------------------------------------------------|
E|---------------------------------------------------------------------------|
                        {Back to chord progression}
                            {Then back to intro}
                       {Then back to chord progression}

| /  slide up
| \  slide down
| h  hammer-on
| p  pull-off
| ~  vibrato
| +  harmonic
| x  Mute note
======================================================================
Related for Black Rock tab