Song name
# A B C D E F G H I J K L M N O P Q R S T U V W X Y Z

Oar - Toy Store tab

Help us improve GuitareTab! Take a short survey!
e|-------------------------------- 10-10-10-10-12-10-10------------------|
B|-------------------------9-10-9--9--9--9--9--9--12-9-------------------|
G|-11^-11^-11^-9------9-11-------------------------------11-9-11-9-------|
D|---------------9-11--------------------------------------------11-9-11-|
A|-----------------------------------------------------------------------|
E|-----------------------------------------------------------------------|

e|-----------------------------------------------10-10-10-10-12-12-10-10-10-|
B|------------------------------------------------9--9--9--9--9--9--9--9--9-|
G|---------------9-11^-9-9-11^-11^-11^-11^-9-9-11---------------------------|
D|-------9-11---------------------------------------------------------------|
A|--9-11--------------------------------------------------------------------|
E|--------------------------------------------------------------------------|

e|-10-12-12-12-12-14-12-12-14-14-14-14-14---14-|... have fun Durty D!
B|-9--11-11-11-11-11-11-11-11-11-11-11-11---11-|
G|---------------------------------------------|
D|---------------------------------------------|
A|---------------------------------------------|
E|---------------------------------------------|
Related for Toy Store tab