Guitaretab - guitar tabs
Song name
# A B C D E F G H I J K L M N O P Q R S T U V W X Y Z
Home / O / Oar / Hey Girl tab

Oar - Hey Girl tab

-------------------------------------------------------------------------------
			     HEY GIRL - O.A.R. - In Between Now and Then (album)
-------------------------------------------------------------------------------
Tabbed by:  	Ross
Key:		E-Major
Tone:	Strat-type guitar on bridge pickup, with tube screamer like distortion and
a little overdrive; through a clean tube amp with very low breakup (fenders). Some
reverb sounds good too.
Tuning:	Standard

Note:	The numbers in italics and the bars surrounding them are there to help you
with the phrasing (‘clusters’ of notes in this case).  Remember to rate it please!

2:04
e|---------------------------------------------------------------------------|
B|---------------------------------------------------------------------------|
G|--8h9--9--9----8h9--9--9----8h9-s11----8h9--9--9----8h9--9--9----8h9-s11---|
D|---------------------------------------------------------------------------|
A|---------------------------------------------------------------------------|
E|---------------------------------------------------------------------------|

2:08
e|---------------------------------------------------------------------------|
B|--7s9--9---9h10--10--10s12--12--12s14-(s17)--------------------------------|
G|---------------------------------------------------------------------------|
D|---------------------------------------------------------------------------|
A|---------------------------------------------------------------------------|
E|---------------------------------------------------------------------------|
[ Tab from: http://www.guitaretab.com/o/oar/42323.html ]
2:10
e|---------------------------------------------------------------------------|
B|---(14)s17-17-17s16---16-16-16-16s14---14-14-14s12---12-12-12s10-----9-----|
G|---------------------------------------------------------------------------|
D|---------------------------------------------------------------------------|
A|---------------------------------------------------------------------------|
E|---------------------------------------------------------------------------|

2:12
e|---------9-------------9-------------9--------9----------------------------|
B|-------9---12p9------9---12p9------9--------9---12p9-----------------------|
G|--11b13--------11b13---------11b13-----11b13--------11-9-11p9--------------|
D|-------------------------------------------------------------11-9-11p9-----|
A|----------------------------------------------------------------------11-9-|
E|------|------5------|------5------|---------------------|----4---|----4---||

2:17
e|-|----4----|-|----4----|------------------9-----7-----5-----4-----2-----0--|
B|---------------------------------------------------------------------------|
G|-------------------9-----9-11-11b11.5---/9--s--8--s--6--s--4--s--2--s--0---|
D|-------9------9h11---11----------------------------------------------------|
A|--9h11---11----------------------------------------------------------------|
E|---------------------------------------------------------------------------|

2:24
e|-------14b16--12h14p12-----------------------------------------------------|
B|---------------------------------------12h14p12~---10h12p10~---9h10p9~-----|
G|---------------------------------------------------------------------------|
D|---------------------------------------------------------------------------|
A|---------------------------------------------------------------------------|
E|---------------------------------------------------------------------------|



| /  slide up toward body
| \  slide down toward neck
| s  slide to a specific note
| h  hammer-on
| p  pull-off
| ~  vibrato
| +  harmonic
| x  Mute note
===============================================================================
Related for Hey Girl tab
Advertisement will be closed in 10 seconds