Song name
# A B C D E F G H I J K L M N O P Q R S T U V W X Y Z

Oar - Ladanday tab

Song: Ladanday
Band: O.A.R.
Tabbed by: O-52-A-50-R
Album: Any that makes you rate this good ;)

*The other tab for this only got 3 stars so I figured I'd try mine out

Intro/Main Riff

|/10-10-10-10-12-10-5-5-5-5-7-5-5-x-3-x-2-x-3-x-2-2-2/5-5--|
|/10-10-10-10-10-10-5-5-5-5-5-5-5-x-3-x-2-x-3-x-2-2-2/5-5--|
|----------------------------------------------------------|
|----------------------------------------------------------|
|----------------------------------------------------------|
|----------------------------------------------------------|

*At the end of each riff you slide from the |55----| to the |10,10----| hence the slide 
at the beginning of the riff

Verse

|-10-5-3-5---|
|-10-5-3-5---|
|-11-6-4-6---|
|-12-7-5-7---|
|-12-7-5-7---|
|-10-5-3-5---|

Richard-Electric Guitar

|10-5-3-5-|
|10-5-3-5-|
|---------|
|---------|
|---------|
|---------|

Chorus (Ladandan…dandayy)

|-10-5-3-5---|
|-10-5-3-5---|
|-11-6-4-6---|
|-12-7-5-7---|
|-12-7-5-7---|
|-10-5-3-5---|

|10-5-3-5-|
|10-5-3-5-|
|---------|
|---------|
|---------|
|---------|
Tap to rate this tab
# A B C D E F G H I J K L M N O P Q R S T U V W X Y Z