Song name
# A B C D E F G H I J K L M N O P Q R S T U V W X Y Z

Oar - Any Time Now tab

O.A.R.
Any Time Now


Intro

e--------------------------------------------------|
b--------------------------------------------------|
g--------------------------------------------------|
d------2/4--2--------------------------------------|
a----------------2-3-4-0---------2-0-2-4-2---0-----|
E--------------------------2-0-------------2-------|


Chorus/Verse

e-----5----5----7-----|
b-----5----7----7-----|
g-----6----7----8-----|
d-----7----7----9-----|
a-----7----5----9-----|
E-----5----5----7-----|


Questions/Comments?
joshpwc@yahoo.com
oarsa.org
Tap to rate this tab
 
# A B C D E F G H I J K L M N O P Q R S T U V W X Y Z